Guitaretab - guitar tabs
Song name
# A B C D E F G H I J K L M N O P Q R S T U V W X Y Z
Home / K / Kyuss / Mudfly tab

Kyuss - Mudfly tab

-------------------------------------------------------------------------------
                                 Kyuss  Mudfly
-------------------------------------------------------------------------------

Tabbed by: brian_s
Email: branimir.sremec@kc.t-com.hr


C-----------------------------------6b--------------------------------|
G---------------------------------5-----------------------------------|
D#--------------------------------------------------------------------| 8x
A#---2---2-2-2-2-2---2-2-2-2-2----------------------------------------|
F----2---2-2-2-2-2---2-2-2-2-2----------------------------------------|
C----0---0-0-0-0-0---0-0-0-0-0----------------------------------------|

00:43
C---------------------------------------------------------------------|
G---------------------------------------------------------------------|
D#---3p0h6----0h3p0---4h6p4h6-4p3p0----------------------------------| 3x
A#--------------------------------------------------------------------|
F---------------------------------------------------------------------|
C---------------------------------------------------------------------|


C---------------------------------------------------------------------|
G---------------------------------------------------------------------|
D#---3p0h6----6p4p3p0-6p4p3------------------------------------------|
A#--------------------------------------------------------------------|
F---------------------------------------------------------------------|
C---------------------------------------------------------------------|


C---------------------------------------------------------------------|
G---------------------------------------------------------------------|
D#---3p0h6----4h6p4p3p0-6p4p3----------------------------------------|
A#--------------------------------------------------------------------|
F---------------------------------------------------------------------|
C---------------------------------------------------------------------|


C---------------------------------------------------------------------|
G---------------------------------------------------------------------|
D#---3p0h6p4p3h4---6p4h6p4h6p4h6--------------------------------------|
A#--------------------------------------------------------------------|
F---------------------------------------------------------------------|
C---------------------------------------------------------------------|


C-----------------------------------6b--------------------------------|
G---------------------------------5-----------------------------------|
D#--------------------------------------------------------------------| 2x
A#---2---2-2-2-2-2---2-2-2-2-2----------------------------------------|
F----2---2-2-2-2-2---2-2-2-2-2----------------------------------------|
C----0---0-0-0-0-0---0-0-0-0-0----------------------------------------|

[ Tab from: http://www.guitaretab.com/k/kyuss/88155.html ]
C---------------------------------12----------------------------------|
G------------------------------------11b------------------------------|
D#--------------------------------------------------------------------|
A#---2---2-2-2-2-2---2-2-2-2-2----------------------------------------|
F----2---2-2-2-2-2---2-2-2-2-2----------------------------------------|
C----0---0-0-0-0-0---0-0-0-0-0----------------------------------------|


C------------------------------------12-------------------------------|
G---------------------------------11----------------------------------|
D#--------------------------------------------------------------------|
A#---2---2-2-2-2-2---2-2-2-2-2----------------------------------------|
F----2---2-2-2-2-2---2-2-2-2-2----------------------------------------|
C----0---0-0-0-0-0---0-0-0-0-0----------------------------------------|

C-----------------------------------6b--------------------------------|
G---------------------------------5-----------------------------------|
D#--------------------------------------------------------------------| 4x
A#---2---2-2-2-2-2---2-2-2-2-2----------------------------------------|
F----2---2-2-2-2-2---2-2-2-2-2----------------------------------------|
C----0---0-0-0-0-0---0-0-0-0-0----------------------------------------|


C---------------------------------------------------------------------|
G---------------------------------------------------------------------|
D#---3p0h6----0h3p0---4h6p4h6-4p3p0----------------------------------| 3x
A#--------------------------------------------------------------------|
F---------------------------------------------------------------------|
C---------------------------------------------------------------------|


C---------------------------------------------------------------------|
G---------------------------------------------------------------------|
D#---3p0h6----6p4p3p0-6p4p3------------------------------------------|
A#--------------------------------------------------------------------|
F---------------------------------------------------------------------|
C---------------------------------------------------------------------|


C---------------------------------------------------------------------|
G---------------------------------------------------------------------|
D#---3p0h6----4h6p4p3p0-6p4p3----------------------------------------| 3x
A#--------------------------------------------------------------------|
F---------------------------------------------------------------------|
C---------------------------------------------------------------------|


C---------------------------------------------------------------------|
G---------------------------------------------------------------------|
D#---3p0h6p4p3h4---6p4h6p4h6p4h6--------------------------------------|
A#--------------------------------------------------------------------|
F---------------------------------------------------------------------|
C---------------------------------------------------------------------|


C---------------------------------------------------------------------|
G---------------------------------------------------------------------|
D#--------------------------------------------------------------------| 8x
A#---2---2-2-2-2-2---2-2-2-2-2----------------------------------------|
F----2---2-2-2-2-2---2-2-2-2-2----------------------------------------|
C----0---0-0-0-0-0---0-0-0-0-0----------------------------------------|
Related for Mudfly tab