Song name
# A B C D E F G H I J K L M N O P Q R S T U V W X Y Z

Kyuss - Gardenia tab

Intro Riff/Main Riff:
 C|------------------------|
 G|------------------------|
Eb|------------------------|
Bb|-7-7-7-7/9-9-9-9>-9>-9>-|
 F|-5-5-5-5/7-7-7-7>-7>-7>-|
 C|------------------------|

 C|-------------------------------------------------||
 G|-------------------------------------------------||
Eb|-------------------------------------------------||
Bb|-4--5-5-5-5-5-5-5-5-5-5-5--4/5-5-5-5-5-5/7-7-7-7-||
 F|-2--3-3-3-3-3-3-3-3-3-3-3--2/3-3-3-3-3-3/5-5-5-5-||
 C|-------------------------------------------------||


Bridge:
 C|------------------------------------------||
 G|------------------------------------------||
Eb|-7/9-9-9-9--------------------------------||
Bb|-5/7-7-7-7-9-9-9--5-5-5-5/7-7-7-7-9-9-9-7-||
 F|-----------7-7-7------------------7-7-7-5-||
 C|------------------------------------------||
Tap to rate this tab
 
# A B C D E F G H I J K L M N O P Q R S T U V W X Y Z