Guitaretab - guitar tabs
Song name
# A B C D E F G H I J K L M N O P Q R S T U V W X Y Z

Kyuss - Allens Wrench tab

-------------------------------------------------------------------------------
                             Kyuss  Allen's Wrench
-------------------------------------------------------------------------------

Tabbed by: brian_s
Email: branimir.sremec@kc.t-com.hr


INTRO:
C------------------------------------------------------------|
G------------------------------------------------------------|
D#-----------------------------------------------------------|        play 2x
A#-----------7-7----------7-7----------7-7-------------------|
F-----0--0-0-------0--0-0-------0--0-0-------0--0-0----------|
C---------------------------------------------------3h5p3----|

Now the band kicks in


VERSE 1:
C------------------------------------------------------------|
G------------------------------------------------------------|    
D#-----------------------------------------------------------|        play 2x
A#-----------7-7----------7-7----------7-7-------------------|
F-----0--0-0-------0--0-0-------0--0-0-------0--0-0----------|
C---------------------------------------------------3h5p3----|


PRE CHORUS:
C----------------------------------------------------------------|
G----------------------------------------------------------------|
D#---------------------------------------------------------------|    play 2x
A#-----------7-7----------10-10----------12-12-------------------|
F-----0--0-0-------0--0-0---------0--0-0---------0--0-0----------|
C-------------------------------------------------------3h5p3----|


CHORUS:
C------------------------------------------------------------|
G------------------------------------------------------------|
D#-----------------------------------------------------------|        play 4x
A#--------------------10-10----------------------10--12-12---|
F----7--7-7-7-7--7-7------------7--7-7-7-7--7-7--------------|
C----5--5-5-5-5--5-5------------5--5-5-5-5--5-5--------------|

Pause 


VERSE 2:
C------------------------------------------------------------|
G------------------------------------------------------------|
D#-----------------------------------------------------------|        play 4x
A#-----------7-7----------7-7----------7-7-------------------|
F-----0--0-0-------0--0-0-------0--0-0-------0--0-0----------|
C---------------------------------------------------3h5p3----|

[ Tab from: http://www.guitaretab.com/k/kyuss/91872.html ]
PRE CHORUS:
C----------------------------------------------------------------|
G----------------------------------------------------------------|
D#---------------------------------------------------------------|    play 2x
A#-----------7-7----------10-10----------12-12-------------------|
F-----0--0-0-------0--0-0---------0--0-0---------0--0-0----------|
C-------------------------------------------------------3h5p3----|


CHORUS:
C------------------------------------------------------------|
G------------------------------------------------------------|
D#-----------------------------------------------------------|        play 4x
A#--------------------10-10----------------------10--12-12---|
F----7--7-7-7-7--7-7------------7--7-7-7-7--7-7--------------|
C----5--5-5-5-5--5-5------------5--5-5-5-5--5-5--------------|


BRIDGE:
C------------------------------------------------------------|
G------------------------------------------------------------|
D#-----------------------------------------------------------|        play 4x
A#-----------7-7----------7-7----------7-7-------------------|  
F-----0--0-0-------0--0-0-------0--0-0-------0--0-0----------|
C---------------------------------------------------3h5p3----|
                                                                  _
C---------------------------------------------------------------|  |
G---------------------------------------------------------------|  |
D#--------------------------------------------------------------|  |
A#-----------7-7----------10-10----------12-12------------------|  |
F-----0--0-0-------0--0-0---------0--0-0---------0--0-0---------|  |
C-------------------------------------------------------3h5p3---|  |  play 3x
                                                                   |
C---------------------------------------------------------------|  |
G---------------------------------------------------------------|  |
D#--------------------------------------------------------------|  |
A#-----------7b-7----------7b-7----------7b-7-------------------|  |
F-----0--0-0--------0--0-0--------0--0-0--------0--0-0----------|  |
C------------------------------------------------------3h5p3----| _|


OUTRO:
C-----------------------------|
G-----------------------------|
D#----------------------------|    play 7x
A#----------------------------|
F----7--7-7-7--5-5--4--2-2----|
C----5--5-5-5--3-3--2--0-0----|
Related for Allens Wrench tab