Guitaretab - guitar tabs
Song name
# A B C D E F G H I J K L M N O P Q R S T U V W X Y Z

Kyuss - Mondo Generator tab

Taken from thefade.net, I did not make this tab.

Kyuss: Mondo Generator
From the album: 'Blues For The Red Sun' (Dali)v  1992 Dali Records
Lyrics by N. Oliveri
Music by Kyuss
Transcribed by Sean Hayter  2001

Tuning: Down 2 Whole Steps to C (C-F-Bb-Eb-G-C)
Notes: 'Mondo Generator' is track #13 on 'Blues For The Red Sun'

Main Riff:
C||---------------------------------|------------------------------||
G||---------------------------------|------------------------------||
Eb|--h------------------------------|---h--------------------------||
Bb|-5^7-7-5-7---5-7---5-7-5---------|-5^7-7-5-7---5-7---5-7-5------||
F||-0---0-0-0---0-0---0-0-0-7-6-5-3-|-0---0-0-0---0-0---0-0-0-0-3~-||
C||---------------------------------|------------------------------||
[ Tab from: http://www.guitaretab.com/k/kyuss/99648.html ]
Main Riff 2: End Riff:
C||---------------------------------|-----------------------------|-----------||
G||---------------------------------|-----------------------------|-----------||
Eb|--h------------------------------|---h-----------------5-----7-|---5-----7-||
Bb|-5^7-7-5-7---5-7---5-7-5---------|-5^7-7-5-7-----------5-----7-|---5-----7-||
F||-0---0-0-0---0-0---0-0-0-7-6-5-3-|-0---0-0-0---0-0---0-3---0-5-|-0-3---0-5-||
C||---------------------------------|-----------------------------|-----------||

Outro Solo

Lyrics:
The lyrics are hard to understand as the singer (Nick Oliveri) has an effect on his 
therefore, I am not 100% sure on this one.

Ah! Who's gonna take you there?
You're such a good way back...long
You're such a good way back
You're such a good way back...long
Way from here
Yeah, yeah down

What's the difference?
What do you do?
Mondo generator
Well, I try to cross the edge
Well, who, who can find me there?

I want to find you there, I'm never coming
Who was the tragic fool? What's wrong with my head?

You try to match it without a hope in hell, you're such a fool
I cannot take you there
What does, what does, what does it take?
Every time I knew you, you try to, I can't hear you there

There's something there
You try to match it without a hope in hell, you fucking fool
What fucking difference does it make?
There's nothing left but what goes up
There's nothing left but what goes up
There's nothing left but what goes up
There's nothing left but what goes up
I gotta do something or what will happen there might fuck

When you look back you gotta a long way to go there
What the fucking hell is going on?
I tried more and more
I gotta give
Get back, you gotta give
Related for Mondo Generator tab