Song name
# A B C D E F G H I J K L M N O P Q R S T U V W X Y Z

L7 - Pretend Were Dead tab

Help us improve GuitareTab! Take a short survey!
L7
Pretend We're Dead
Tuning: Eb, Ab, Db, Gb, Bb, eb

Intro

eb|-------------------------------------------------|
Bb|-------------------------------------------------|
Gb|--5--5------------3--3--3------------------------|
Db|--5--5----3--3----3--3--3------------------------|
Ab|--3--3----3--3----1--1--1------------------------|
Eb|----------1--1-------------3---1--3--1-----------|

Main Riff 

eb|-------------------------------------------------|
Bb|-------5-------------------3---------------------|
Gb|---5-5---5--------2------3---3-------------------|
Db|--------------3-3---3----------5-3-5-3-----------|
Ab|-------------------------------------------------|
Eb|-------------------------------------------------|

Verse

eb|-------------------------------------------------|
Bb|-------------------------------------------------|
Gb|--5--5------------3--3--3------------------------|
Db|--5--5----3--3----3--3--3------------------------|
Ab|--3--3----3--3----1--1--1------------------------|
Eb|----------1--1-------------3---1--3--1-----------|

Chorus

eb|-------------------------------------------------|
Bb|-------------------------------------------------|
Gb|--5--5------------3--3--3------------------------|
Db|--5--5----3--3----3--3--3------------------------|
Ab|--3--3----3--3----1--1--1------------------------|
Eb|----------1--1-------------3---1--3--1-----------|

Main Riff 

eb|-------------------------------------------------|
Bb|-------5-------------------3---------------------|
Gb|---5-5---5--------2------3---3-------------------|
Db|--------------3-3---3----------5-3-5-3-----------|
Ab|-------------------------------------------------|
Eb|-------------------------------------------------|

Verse

eb|-------------------------------------------------|
Bb|-------------------------------------------------|
Gb|--5--5------------3--3--3------------------------|
Db|--5--5----3--3----3--3--3------------------------|
Ab|--3--3----3--3----1--1--1------------------------|
Eb|----------1--1-------------3---1--3--1-----------|

Chorus

eb|-------------------------------------------------|
Bb|-------------------------------------------------|
Gb|--5--5------------3--3--3------------------------|
Db|--5--5----3--3----3--3--3------------------------|
Ab|--3--3----3--3----1--1--1------------------------|
Eb|----------1--1-------------3---1--3--1-----------|

Break

eb|-------------------------------------------------|
Bb|-------------------------------------------------|
Gb|-------------------------------------------------|
Db|--5~---------------------------------------------|
Ab|--5~---------------------------------------------|
Eb|--3~---------------------------------------------|

Main Riff 

eb|-------------------------------------------------|
Bb|-------5-------------------3---------------------|
Gb|---5-5---5--------2------3---3-------------------|
Db|--------------3-3---3----------5-3-5-3-----------|
Ab|-------------------------------------------------|
Eb|-------------------------------------------------|
 
Outro

eb|-------------------------------------------------|
Bb|-------------------------------------------------|
Gb|--5--5------------3--3--3------------------------|
Db|--5--5----3--3----3--3--3------------------------|
Ab|--3--3----3--3----1--1--1------------------------|
Eb|----------1--1-------------3---1--3--1-----------|


Enjoy!


Related for Pretend Were Dead tab