Song name
# A B C D E F G H I J K L M N O P Q R S T U V W X Y Z

L7 - I Need tab

L7 - I Need

Standard Tuning & Heavy Distortion

Ahhh, so challenging....L7 makes me think I play good enough to get a 
record deal. Yeah, right!

e|--------------------------------------------------------|
B|--------------------------------------------------------|
G|--------------------------------------------------------|
D|--------------------------------------------------------|
A|---5-5-5-5-4-4-3-3-2---------2---2----------------------|
E|---3-3-3-3-2-2-1-1-0-0-0-0-0-0-0-0----------------------|
                       .......   .

e|--------------------------------------------------------|
B|--------------------------------------------------------|
G|--------------------------------------------------------|
D|--------------------------------------------------------|
A|---5-5-4-4-3-3-3-3-2---2--------------------------------|
E|---3-3-2-2-1-1-1-1-0-0-0--------------------------------|
                       .
Tap to rate this tab
# A B C D E F G H I J K L M N O P Q R S T U V W X Y Z