Song name
# A B C D E F G H I J K L M N O P Q R S T U V W X Y Z

L7 - Slide tab

L7
Slide

Intro/Verse
G-----------------/-----------------/-----------------/----------------//
D-----------------/-----------------/-----------------/----------------//
A-----------------/-----------------/-----------------/----------------//
E--0--0-0-0-0-0-0-/--3--3-3-3-3-3-3-/--2--2-2-2-2-2-2-/--2-2-2-2--3--2-//

Chorus
G-----------------/-----------------/-----------------/----------------//
D-----------------/-----------------/-----------------/----------------//
A-----------------/-----------------/-----------------/----------------//
E--7--7-7-7-7-7-7-/--3--3-3-3-3-3-3-/--2--2-2-2-2-2-2-/--2-2-2-2--3--2-//

Solo/Outro
G------------------/-----------------/-----------------/----------------/
D*-----------------/----------------*/-----------------/----------------/
A*-----------------/----------------*/--2--2-2-2-2-2-2-/--2-2-2-2-------/
E--0--0-0-0-0-0-0--/--0-0-0-0--3--2--/-----------------/-----------3--2-/

G-----------------/----------------//
D-----------------/----------------//
A-----------------/----------------//
E--0--0-0-0-0-0-0-/--0-0-0-0--3--2-//
Tap to rate this tab
# A B C D E F G H I J K L M N O P Q R S T U V W X Y Z