L7 - Till The Wheels Fall Off tab

-------------------------------------------------------------------------------
		 'Till the Wheels Fall Off - L7
-------------------------------------------------------------------------------
Tabbed by: petzakecske
Email: petzazsoldos@hotmail.com

Tuning: standard
 
So, the main part is built up from two separate parts, the first one is this:

e|--------------------------------------------------------|
B|--------------------------------------------------------|
G|--------------------------------------------------------|
D|--7-5-------------------------7-------------------------|
A|------7-5---------------------7-------------------------|
E|----------8--5-5-8--5-5--5--5-5-------------------------|
                                 keep picking this
play this two times, than play this two times:

e|-----------------------------|
B|-----------------------------|
G|-----------------------------|
D|--9--------------8-7-5-------|
A|--9--------------8-7-5-------|
E|--7--------------6-5-3-------|
     keep picking

ok, repeat these till the break:

e|-----------------------|
B|-----------------------|
G|-----------------------|
D|--7----------5-7-------|
A|--7----------5-7-------|
E|--5----------3-5-------|

then play something like this palm-muted, sorry, I've got no lead part :\
e|------------------|
B|------------------|
G|------------------|
D|------------------|
A|------------------|
E|--3--5--5-5-5-5---|
    x  x  x x x x 
also, keep this repeating, till the main part returns
and finally, have fun :)


************************************

| /   slide up
| \   slide down
| h   hammer-on
| p   pull-off
| ~   vibrato
| +   harmonic
| x   Mute note
| b   Bend
| pb  Pre-bend
| br  Bend release
| pbr Pre-bend release
| brb Bend release bend

************************************
Tap to rate this tab
 
# A B C D E F G H I J K L M N O P Q R S T U V W X Y Z