L7 - Everglade tab

Intro
e|--------------------------------|
B|--------------------------------|
G|--------------------------------|
D|---2-----2-----2-----3-3-3------|
A|---2-x-x-2-x-x-2-x-x-1-1-1------|
E|---0-x-x-0-x-x-0-x-x------------|

Verse
e|--------------------------------|
B|--------------------------------|
G|--------------------------------|
D|---2-2-2-2-8-8-8-8----7/9/7/9/7-|
A|---2-2-2-2-8-8-8-8----7/9/7/9/7-|
E|---0-0-0-0-6-6-6-6----5/7/5/7/5-|
Palm Mute...........


Chorus

e|---------------------------------|
B|---------------------------------|
G|---------------------------------|
D|---/11-11-11-11-11-11--7/9/7/9/7-|
A|---/11-11-11-11-11-11--7/9/7/9/7-|
E|---/9--9--9--9--9--9---5/7/5/7/5-|
 
Tap to rate this tab
 
# A B C D E F G H I J K L M N O P Q R S T U V W X Y Z