Song name
# A B C D E F G H I J K L M N O P Q R S T U V W X Y Z

L7 - Stuck Here Again tab

Stuck Here Again by L7 without solo.
Standard tuning.
By Adella

e ------------------------------------------------------------------|
B ---6-----6-----------------4------4------------6-----6------------|
G -----8------8----------------6-------6-----------8-----8----------|
D -------7-------7---------------5-------5-----------7-----7--------|
A -8---------------8------6--------------------8-------------8------|
E ------------------------------------------------------------------|

e -------------------------------------|
B ----4---------6----------------------|
G ------6----------7-------------------|
D --------5-----------8----------------|
A --6----------------------------------|
E -------------------------------------|(FEW TIMES)


e -----------------------------------------------|
B -----------------------------------------------|
G -----------------------------------------------|
D -x--x--10-10--x--x--8-8---3-3-3-3--------------|
A -x--x--10-10--x--x--8-8---3-3-3-3--------------|
E -x--x--8--8---x--x--6-6---1-1-1-1--------------|



e ------------------------------------------------------------------|
B ---6-----6-----------------4------4------------6-----6------------|
G -----8------8----------------6-------6-----------8-----8----------|
D -------7-------7---------------5-------5-----------7-----7--------|
A -8---------------8------6--------------------8-------------8------|
E ------------------------------------------------------------------|

e ------------------------------------------------|
B ----4------------4-4---5--6---------------------|
G ------6----------6-6---7--8---------------------|
D --------5--------5-5---6--7---------------------|
A --6--------------6-6---7--8---------------------|
E ------------------------------------------------| ( end)


I think that's all ;)
Tap to rate this tab
# A B C D E F G H I J K L M N O P Q R S T U V W X Y Z