Song name
# A B C D E F G H I J K L M N O P Q R S T U V W X Y Z

L7 - Pretend That Were Dead tab

L7 - Pretend That Were Dead
"Bricks Are Heavy"

[Intro]
-----------------------------------------
-----------------------------------------
--4-4-x-x--------------------------------
--4-4-x-x--2-2-x-x-2-x-4-----------------
--2-2-x-x--2-2-x-x-0-x-4-----------------
-----------0-0-x-x-0-x-2-2-3-2-----------

played through most of the song.. oh yes.. very challenging i know :P

[chorus]

-----------------------------------------
-----------------------------------------
-----------------------------------------
--10---2---7---5-------------------------
--10---2---7---5-------------------------
--8----0---5---3-------------------------    

thats most of the song, there are other very small parts which
i think u can work out yourself.

comments, corrections, hate mail and death threats to -
clangerfreak@hotmail.com

~*jinxx*~
Tap to rate this tab
 
# A B C D E F G H I J K L M N O P Q R S T U V W X Y Z