Song name
# A B C D E F G H I J K L M N O P Q R S T U V W X Y Z

L7 - Talk Box tab

-----------------------------------------------------------------------------
                             “Talk Box” – L7
-----------------------------------------------------------------------------
Tabbed by: decayingsinner
E-mail:joeghartman@verizon.net

Tuning: Standard


Intro / Chorus:
e|----------------------------------------------------------------------------|
B|----------------------------------------------------------------------------|
G|----------------------------------------------------------------------------|
D|----------------------------------------------------------------------------|
A|2-2-3-22-8-77--77-----------------------------------------------------------|
E|0-0-1-00-6-55--55-----------------------------------------------------------|


Verse:
e|------------------------------------------------------------------------|
B|------------------------------------------------------------------------|
G|------------------------------------------------------------------------|
D|------------------------------------------------------------------------|
A|-44-4-2-4-4/5\4----4-4-2-4-4/5\2-----x2---------------------------------|
E|-22-2-0-2-2/3\2----2-2-0-2—2/3\2----------------------------------------|

e|-------------------------------------------------------------------------|
B|-------------------------------------------------------------------------|
G|-------------------------------------------------------------------------|
D|-------------------------------------------------------------------------|
A|-55-5-4-5-5/6\5---5-5-4-5-5/6\5-------x2---------------------------------|
E|-33-3-2-3-3/4\3---3-3-2-3-3/4\3------------------------------------------|

Chorus
Verse
Chorus


I have not tried to figure out the solo yet.

************************************

| /   slide up
| \   slide down
| h   hammer-on
| p   pull-off
| ~   vibrato
| +   harmonic
| x   Mute note
| b   Bend
| pb  Pre-bend
| br  Bend release
| pbr Pre-bend release
| brb Bend release bend

************************************
Tap to rate this tab
# A B C D E F G H I J K L M N O P Q R S T U V W X Y Z