Song name
# A B C D E F G H I J K L M N O P Q R S T U V W X Y Z

L7 - Masses Are Asses tab

Masses Are Asses - L7 - The Beauty Process: Triple Platinum (2000)

Intro (G1)
e|---------------------------------------------------------------------------------------
b|---------------------------------------------------------------------------------------
g|---------------------------------------------------------------------------------------
d|----------------------------------------7--7--7--7--7--7--7--7--4--4--4--4--7--7--7--7-
a|----------------------------------------7--7--7--7--7--7--7--7--4--4--4--4--7--7--7--7-
E|-5--5--5--5--5--5--5--5--0--2--0--2--0--5--5--5--5--5--5--5--5--2--2--2--2--5--5--5--5-

--------------------------------------------------------------|
--------------------------------------------------------------|
--------------------------------------------------------------|
7--7--7--2--4--2--4--2--7--7--7--7--7--7--7--7--2--4--2--4--2-|
7--7--7--2--4--2--4--2--7--7--7--7--7--7--7--7--2--4--2--4--2-|
5--5--5--0--2--0--2--0--5--5--5--5--5--5--5--5--0--2--0--2--0-|

Verse (G1)
e|---------------------------------------|
b|---------------------------------------|
g|---------------------------------------|
d|-7--7--7--7--7--7--7--7--2--4--2--4--2-|
a|-7--7--7--7--7--7--7--7--2--4--2--4--2-|
E|-5--5--5--5--5--5--5--5--0--2--0--2--0-|
Pm .....................................

I still get angry
I still get sad
And the losers
Still drive me mad

(G2)
e|----------------|
b|-10--10--10--10-|
g|--9---9---9---9-|
d|----------------|
a|----------------|
E|----------------|

And I wonder
If I have anything to say anymore
Oh yeah
I wonder

(G2)
e|----------------|
b|-10--10--10--10-|
g|--9---9---9---9-|
d|----------------|
a|----------------|
E|----------------|

If I have anything to say

Chorus (G1)
e|---------------------------------------|
b|---------------------------------------|
g|---------------------------------------|
d|-7--7--7--7--7--7--7--7--2--4--2--4--2-|
a|-7--7--7--7--7--7--7--7--2--4--2--4--2-|
E|-5--5--5--5--5--5--5--5--0--2--0--2--0-|

Except the masses are asses
Oh yeah, the masses are asses 
(They're all asses)

(G1)
e|---------------------------------------|
b|---------------------------------------|
g|---------------------------------------|
d|-7--7--7--7--7--7--7--7--2--4--2--4--2-|
a|-7--7--7--7--7--7--7--7--2--4--2--4--2-|
E|-5--5--5--5--5--5--5--5--0--2--0--2--0-|
Pm .....................................

(G2)
e|---------------------------------------------------------------------------------------
b|------------------------------10--10--10--10-------------------------------10--10--10--
g|-------------------------------9---9---9---9--------------------------------9---9---9--
d|-7~--7--------------------7~------------------7~--7--------------------7~--------------
a|--------7--9--7--9--7--9-----------------------------7--9--7--9--7--9------------------
E|---------------------------------------------------------------------------------------

---------|
--10--10-|
---9---9-|
---------|
---------|
---------|

Verse (G1)
e|---------------------------------------|
b|---------------------------------------|
g|---------------------------------------|
d|-7--7--7--7--7--7--7--7--2--4--2--4--2-|
a|-7--7--7--7--7--7--7--7--2--4--2--4--2-|
E|-5--5--5--5--5--5--5--5--0--2--0--2--0-|
Pm .....................................

Things still 
Piss me off 
And things 
Still make me cry 

(G2)
e|---------------------------------------------------------------------------------------
b|------------------------------10--10--10--10-------------------------------10--10--10--
g|-------------------------------9---9---9---9--------------------------------9---9---9--
d|-7~--7--------------------7~------------------7~--7--------------------7~--------------
a|--------7--9--7--9--7--9-----------------------------7--9--7--9--7--9------------------
E|---------------------------------------------------------------------------------------

---------|
--10--10-|
---9---9-|
---------|
---------|
---------|

Poetry's in motion, not in mind 
Poetry's in motion but not in my mind 
Poetic justice will come in time 
And I just have to laugh,
I just have to laugh 

Because the masses (masses) 
Are asses (asses)
Oh yeah, The masses (masses)
Are asses (we're all asses)

Chorus (G1)
e|---------------------------------------|
b|---------------------------------------|
g|---------------------------------------|
d|-7--7--7--7--7--7--7--7--2--4--2--4--2-|
a|-7--7--7--7--7--7--7--7--2--4--2--4--2-|
E|-5--5--5--5--5--5--5--5--0--2--0--2--0-|

e|------------------------------|
b|------------------------------|
g|------------------------------|
d|-7--4--4--4--4--7--4--4--4--4-|
a|-7--4--4--4--4--7--4--4--4--4-|
E|-5--2--2--2--2--5--2--2--2--2-|

Solo (G1)
e|---------------------------------------|
b|---------------------------------------|
g|---------------------------------------|
d|-7--7--7--7--7--7--7--7--2--4--2--4--2-|
a|-7--7--7--7--7--7--7--7--2--4--2--4--2-|
E|-5--5--5--5--5--5--5--5--0--2--0--2--0-|
Pm .....................................

(G2)
e|-----------------------------------------------------------------------------------
b|--------------------------------------------5-----------5-----------------5--------
g|-----------------------------------------------7--5--------7--5--------------7--5--
d|--5--7--7--5--7--7--7--7--5--7--7--5--7--7-----------7-----------7--7--7-----------
a|-----------------------------------------------------------------------------------
E|-----------------------------------------------------------------------------------

-----------------------------|
-----------------------------|
-----------------------------|
--7--5--7--7--7--7--7--7--7--|
-----------------------------|
-----------------------------|

(G1)
e|---------------------------------------|
b|---------------------------------------|
g|---------------------------------------|
d|-7--7--7--7--7--7--7--7--2--4--2--4--2-|
a|-7--7--7--7--7--7--7--7--2--4--2--4--2-|
E|-5--5--5--5--5--5--5--5--0--2--0--2--0-|
Pm .....................................

Poetry's in motion, not in mind 
Poetry's in motion but not in my mind 
Poetic justice will come in time 
And I just have to laugh, 
I just have to laugh


Chorus (G1)
e|---------------------------------------|
b|---------------------------------------|
g|---------------------------------------|
d|-7--7--7--7--7--7--7--7--2--4--2--4--2-|
a|-7--7--7--7--7--7--7--7--2--4--2--4--2-|
E|-5--5--5--5--5--5--5--5--0--2--0--2--0-|

Because the masses (masses)
Are asses (asses)
Oh yeah, The masses (masses)
Are asses
Because the masses (masses)
Are asses (asses)
Oh yeah, The masses (masses)
Are asses 
Masses are asses every day 
Masses are asses in every way 
Woo Woo

Outro (G1)
e|---------------------------------------|
b|---------------------------------------|
g|---------------------------------------|
d|-7--7--7--7--7--7--7--7--2--4--2--4--2-|
a|-7--7--7--7--7--7--7--7--2--4--2--4--2-|
E|-5--5--5--5--5--5--5--5--0--2--0--2--0-|
Pm .....................................

(G2)
e|-----------------------------------------------------------------------------------
b|--------------------------------------------5-----------5-----------------5--------
g|-----------------------------------------------7--5--------7--5--------------7--5--
d|--5--7--7--5--7--7--7--7--5--7--7--5--7--7-----------7-----------7--7--7-----------
a|-----------------------------------------------------------------------------------
E|-----------------------------------------------------------------------------------

--------------------------------------------------------------------------------------
-----------------------------7b--5-----5--7b--5-----------7b--5-----------------------
--------------------------------------------------------------------------------------
--7--5--7--7--7--7--7--7--7---------7------------7--7--7---------7--7--5--7--7--7--7--
--------------------------------------------------------------------------------------
--------------------------------------------------------------------------------------

-------------------------------------------------------------------------|
-----7b--5-----5--7b--5-----------5--7b--5--7b--5--7b--5-----------------|
-------------------------------------------------------------------------|
--7---------7------------7--7--7--------------------------7--7--7--7--7--|
-------------------------------------------------------------------------|
-------------------------------------------------------------------------|
Tap to rate this tab
 
# A B C D E F G H I J K L M N O P Q R S T U V W X Y Z