Song name
# A B C D E F G H I J K L M N O P Q R S T U V W X Y Z

L7 - Boys In Black tab

L7 - Boys In Black

From the album: Free the West Memphis 3: A Benefit for Truth & Justice


Intro & Verse 
e|-------------------------------------------------------------------|
B|-------------------------------------------------------------------|
G|-------------------------------------------------------------------|
D|-4~-3~--7/6-7-6---4~-3~--7/6-7/6-7---------------------------------| 4x
A|-4~-3~--7/6-7-6---4~-3~--7/6-7/6-7---------------------------------|
E|-2~-1~--5/4-5-4---4~-1~--5/4-5/4-5---------------------------------|

Fill
e|-------------------------------------------------------------------|
B|-------------------------------------------------------------------|
G|-------------------------------------------------------------------|
D|-3/4~--------------------------------------------------------------| 8x
A|-3/4~--------------------------------------------------------------|
E|-1/2~--------------------------------------------------------------|

Verse 
e|-------------------------------------------------------------------|
B|-------------------------------------------------------------------|
G|-------------------------------------------------------------------|
D|-4~-3~--7/6-7-6---4~-3~--7/6-7/6-7---------------------------------| 4x
A|-4~-3~--7/6-7-6---4~-3~--7/6-7/6-7---------------------------------|
E|-2~-1~--5/4-5-4---4~-1~--5/4-5/4-5---------------------------------|

Fill
e|-------------------------------------------------------------------|
B|-------------------------------------------------------------------|
G|-------------------------------------------------------------------|
D|-3/4~--------------------------------------------------------------| 8x
A|-3/4~--------------------------------------------------------------|
E|-1/2~--------------------------------------------------------------|

Chorus
e|-------------------------------------------------------------------|
B|-------------------------------------------------------------------|
G|-------------------------------------------------------------------|
D|-9-9-9-9-2-2-2-2-7-7-7-7-4-4-4-4-----------------------------------| 3x
A|-9-9-9-9-2-2-2-2-7-7-7-7-4-4-4-4-----------------------------------|
E|-7-7-7-7-0-0-0-0-5-5-5-5-2-2-2-2-----------------------------------|

e|-------------------------------------------------------------------|
B|-------------------------------------------------------------------|
G|-------------------------------------------------------------------|
D|-9-9-9-9-2-2-2-2-7-7-7-7-5~-4~-------------------------------------| 
A|-9-9-9-9-2-2-2-2-7-7-7-7-5~-4~-------------------------------------|
E|-7-7-7-7-0-0-0-0-5-5-5-5-3~-2~-------------------------------------|

Verse 
e|-------------------------------------------------------------------|
B|-------------------------------------------------------------------|
G|-------------------------------------------------------------------|
D|-4~-3~--7/6-7-6---4~-3~--7/6-7/6-7---------------------------------| 4x
A|-4~-3~--7/6-7-6---4~-3~--7/6-7/6-7---------------------------------|
E|-2~-1~--5/4-5-4---4~-1~--5/4-5/4-5---------------------------------|

Fill
e|-------------------------------------------------------------------|
B|-------------------------------------------------------------------|
G|-------------------------------------------------------------------|
D|-3/4~--------------------------------------------------------------| 8x
A|-3/4~--------------------------------------------------------------|
E|-1/2~--------------------------------------------------------------|

Chorus
e|-------------------------------------------------------------------|
B|-------------------------------------------------------------------|
G|-------------------------------------------------------------------|
D|-9-9-9-9-2-2-2-2-7-7-7-7-4-4-4-4-----------------------------------| 3x
A|-9-9-9-9-2-2-2-2-7-7-7-7-4-4-4-4-----------------------------------|
E|-7-7-7-7-0-0-0-0-5-5-5-5-2-2-2-2-----------------------------------|

e|-------------------------------------------------------------------|
B|-------------------------------------------------------------------|
G|-------------------------------------------------------------------|
D|-9-9-9-9-2-2-2-2-7-7-7-7-5~-4~-------------------------------------| 
A|-9-9-9-9-2-2-2-2-7-7-7-7-5~-4~-------------------------------------|
E|-7-7-7-7-0-0-0-0-5-5-5-5-3~-2~-------------------------------------|

Ending
e|-------------------------------------------------------------------|
B|-------------------------------------------------------------------|
G|-------------------------------------------------------------------|
D|-3/4~-(4)----------------------------------------------------------| 8x
A|-3/4~-(4)----------------------------------------------------------|
E|-1/2~-(2)----------------------------------------------------------|
Tap to rate this tab
# A B C D E F G H I J K L M N O P Q R S T U V W X Y Z