Song name
# A B C D E F G H I J K L M N O P Q R S T U V W X Y Z

L7 - Used To Love Him tab

Used To Love Him - L7

Verse
e|--------------|
b|--------------|
g|--7-----------|
d|--7--7--5--7--|
a|--5--7--5--7--|
E|-----5--3--5--|

Chorus
e|-----------------------|
b|-----------------------|
g|--------------------7--|
d|--5--7--5--7--5--7--7--|
a|--5--7--5--7--5--7--5--|
E|--3--5--3--5--3--5-----|
Tap to rate this tab
# A B C D E F G H I J K L M N O P Q R S T U V W X Y Z