Guitaretab - guitar tabs
Song name
# A B C D E F G H I J K L M N O P Q R S T U V W X Y Z

L7 - Fast And Frightening tab

Fast And Frightening - L7

Intro
e|--------|
b|--------|
g|--------|
d|--5--2--|
a|--5--2--|
D|--5--2--|

Verse
e|--------------|
b|--------------|
g|--------------|
d|--5--2--3--2--|
a|--5--2--3--2--|
D|--5--2--3--2--|
[ Tab from: http://www.guitaretab.com/l/l7/80250.html ]
Chorus/Solo
e|--------------------|
b|--------------------|
g|--------------------|
d|--2--7--8--7--5--2--|
a|--2--7--8--7--5--2--|
D|--2--7--8--7--5--2--|

After Solo/Outro
e|--------|
b|--------|
g|--------|
d|--3--2--|
a|--3--2--|
D|--3--2--|
Related for Fast And Frightening tab
Advertisement will be closed in 10 seconds