Song name
# A B C D E F G H I J K L M N O P Q R S T U V W X Y Z

L7 - Wargasm tab

Wargasm
By L7
Tabbed by Josh Trask

I only have the Intro/chorus and verses of this song, not the solo. But it is awesome, 
personal favorite from these guys because the guitar riff sounds great.

I play in Drop D ( D A D G B E )

Intro/Chorus
|---------------------------|
|---------------------------|
|---------------------------|
|---------------------------|   4x
|---------------------------|
|-0-7-9-0-5-7-0-3-5-3-3-3-3-|


Turnaround

|---------------------------|
|---------------------------|
|---------------------------|
|---------------------------|
|---------------------------|
|-3h5-5p3-3-----------------|


Verses

|---------------------------------|
|---------------------------------|
|---------------------------------|
|-5-5-5-5-5-5-5-5-2-2-2-2-2-2-2-2-|   2x
|-5-5-5-5-5-5-5-5-2-2-2-2-2-2-2-2-|
|-5-5-5-5-5-5-5-5-2-2-2-2-2-2-2-2-|

Turnaround

|---------------------------------|
|---------------------------------|
|---------------------------------|
|---------------------------------|
|---------------------------------|
|-3h5-5p3-3-----------------------|


After turnarounds go back to the measure that goes with the song (either chorus or 
Listen to the song a few times to get the timing down perfect.
Tap to rate this tab
# A B C D E F G H I J K L M N O P Q R S T U V W X Y Z