Song name
# A B C D E F G H I J K L M N O P Q R S T U V W X Y Z

L7 - Baggs tab

Help us improve GuitareTab! Take a short survey!
Artist: L7
Song: Baggs
Album: (Shonen Knife cover)
Tabbed by: Martina

INTRO
E------------------------------------------------------|
B------------------------------------------------------|
G------------------------------------------------------|
D--7-66-7-66-77-66-7-66-7-66-7-66-10101010-------------|
A--7-66-7-66-77-66-7-66-7-66-7-66-10101010-------------|
E--5-44-5-44-55-44-5-44-5-44-5-44-8-8-8-8--------------|

VERSE
Every dog and every cat ... 
E------------------------------------------------------|
B------------------------------------------------------|
G------------------------------------------------------|
D--7/6-7/6-7/6-7/10101010------------------------------|
A--7/6-7/6-7/6-7/10101010------------------------------|
E--5/4-5/4-5/4-5/8-8-8-8-------------------------------|

CHORUS
A kindergarden pupil has it ... 
E------------------------------------------------------|
B------------------------------------------------------|
G------------------------------------------------------|
D--44444-1010101010-7777777777--10-b10-b10-10-b10-b10--|
A--44444-1010101010-7777777777-------------------------|
E--22222-8-8-8-8-8--5555555555-------------------------|

E------------------------------------------------------|
B------------------------------------------------------|
G------------------------------------------------------|
D--44444-1010101010-1111111111-1010101010-1111111111\--|
A--44444-1010101010-1111111111-1010101010-1111111111\--|
E--22222-8-8-8-8-8--9-9-9-9-9--8-8-8-8-8--9-9-9-9-9-\--|

VERSE
CHORUS

BRIDGE 
Shoulder bag, Boston bag .. 
E------------------------------------------------------|
B------------------------------------------------------|
G------------------------------------------------------|
D--77-66-1010-7-776------------------------------------|
A--77-66-1010-7-776------------------------------------|
E--55-44-8-8--5-554------------------------------------|

(small solo) 
E------------------------------------------------------|
B------------------------------------------------------|
G--10-b10-b10-10-b10-b10-13-b13-b13-13-b13-b13-14-13---|
D------------------------------------------------------|
A------------------------------------------------------|
E------------------------------------------------------|
 
VERSE
CHORUS
BRIDGE
INTRO
Related for Baggs tab