La Crus - Io Confesso tab

    ___________________________________
   / La Crus                          /
  / Io Confesso                      /
 / Ho sognato troppe l'altra notte? /
/__________________________________/


 Intro (C):
| E | C#m(2) | G#m | G#m(2) |



 A1:
   C#m(2)                    E6maj7
||--0-----0-----0-----0-----|-------------------------|
||o-----4-----4-----4-----4-|-4-----4-----4-----4-----|
||--------------------------|-----6-----6-----6-----6-|
||----6-----6-----6-----6---|---6-----6-----6-----6---|
||o(4)----------------------|(7)----------------------|
||--------------------------|-------------------------|

 G#m(2)                    G#m(2)
|-------------------------|--------------------------||
|-0-----0-----0-----0-----|-0-----0-----0-----0-----o||
|-----3-----3-----3-----3-|-----3-----3-----3-----3--||
|-------------------------|--------------------------||
|---6-----6-----6-----6---|---6-----6-----6-----6---o||
|(4)----------------------|(4)-----------------------||



 A2



 B:
                             1.2.3.
   E                         D#m
||--------------------------|--------------------------||
||o-------------------------|-------------------------o||
||------4-----4-----4-----4-|-----3-----3-----3-----3--||
||----6-----6-----6-----6---|---4-----4-----4-----4----||
||o-7-----7-----7-----7-----|-6-----6-----6-----6-----o||
||--------------------------|--------------------------||

 4.
  D#7
|-------------------------|
|-------------------------|
|-6-----------------------|
|-5-----------------------|
|-6-----------------------|
|-------------------------|



 C1:
| B | D#7 | G#m | G#m  -/F# |
| B | D#7 | G#m | B/F# |
| E | D#7 |



 A3: 
   C#m(2)                    E6maj7
||--0-----0-----0-----0-----|-------------------------|
||o-----4-----4-----4-----4-|-4-----4-----4-----4-----|
||--------------------------|-----6-----6-----6-----6-|
||----6-----6-----6-----6---|---6-----6-----6-----6---|
||o(4)----------------------|(7)----------------------|
||--------------------------|-------------------------|

                           1.2.
 G#m(2)                    G#m(2)
|-------------------------|--------------------------||
|-0-----0-----0-----0-----|-0-----0-----0-----0-----o||
|-----3-----3-----3-----3-|-----3-----3-----3-----3--||
|-------------------------|--------------------------||
|---6-----6-----6-----6---|---6-----6-----6-----6---o||
|(4)----------------------|(4)-----------------------||

 3.
  D#7
|-------------------------|
|-------------------------|
|-6-----------------------|
|-5-----------------------|
|-6-----------------------|
|-------------------------|



 C2:
| B | D#7 | G#m | G#m  -/F# |
| B | D#7 | G#m | B/F# |
| E | D#7  F# | E | C#m |
| G#m | B/F# | E | D#m  F# |



 C3:
| B | D#7 | G#m | G#m  -/F# |
| B | D#7 | G#m | B/F# |
| E | D#7 | E | D#7 |
| E | D#7 | G#m ...



+--------------------------------------------------------------------------+
Jon Sebastian Frederiksen - 30th /April /2011
Just mail me at Maitinin@gmail.com with questions, comments and corrections!
Tap to rate this tab
 
# A B C D E F G H I J K L M N O P Q R S T U V W X Y Z