Song name
# A B C D E F G H I J K L M N O P Q R S T U V W X Y Z

La Cuca - La Balada tab

-=Intro=- Guitarra acústica
    A/F    A5   A      A/F    A5   A
e|------------------------------------|]
B|-----0--------2---------0--------2--|]
G|----2--2---2--2--------2--2---2--2--|]
D|---3----3-2---2-------3----3-2---2--|]
A|--0------0----0------0------0----0--|]
E|------------------------------------|] x4
Perdí mis manos por querer tocarte siempre
perdí mis brazos por creer que siempre estarías aquí
    A/F         A      A/F         A
e|------------------------------------|]
B|-----0--------2---------0--------2--|]
G|----2--2---2--2--------2--2---2--2--|]
D|---3----3-2---2-------3----3-2---2--|]
A|--0------0----0------0------0----0--|]
E|------------------------------------|]
o lo viví, o lo soñé, o lo viví, o lo viví 
    D   D/G    D   D/G    D   D/G   D   D5
e|--2---3------2---3------2---3-----2---0--|]
B|--3---3------3---3------3---3-----3---3--|]
G|--2---2------2---2------2---2-----2---2--|]
D|--0---0------0---0------0---0-----0---0--|]
A|-----------------------------------------|]
E|-----------------------------------------|]
    A/F         A      A/F         A
e|------------------------------------|]
B|-----0--------2---------0--------2--|]
G|----2--2---2--2--------2--2---2--2--|]
D|---3----3-2---2-------3----3-2---2--|]
A|--0------0----0------0------0----0--|]
E|------------------------------------|] x4
Perdí mis piernas por andar sobre tus pasos
y en el fracaso me quede y nunca mas me iré
    A/F         A      A/F         A
e|------------------------------------|]
B|-----0--------2---------0--------2--|]
G|----2--2---2--2--------2--2---2--2--|]
D|---3----3-2---2-------3----3-2---2--|]
A|--0------0----0------0------0----0--|]
E|------------------------------------|]
o lo viví, o lo soñé, o lo viví, o lo viví 
    D   D/G    D   D/G    D   D/G   D   D5
e|--2---3------2---3------2---3-----2---0--|]
B|--3---3------3---3------3---3-----3---3--|]
G|--2---2------2---2------2---2-----2---2--|]
D|--0---0------0---0------0---0-----0---0--|]
A|-----------------------------------------|]
E|-----------------------------------------|]

    C#m  Dm  E   A#   	C#m  Dm  E  B
e|--4----5---0---4-----4----5---0--2--|]
B|--5----5---0---4-----5----5---0--4--|]
G|--6----6---1---5-----6----6---1--4--|]
D|--6----7---2---6-----6----7---2--4--|]
A|--4----7---2---6-----4----7---2--2--|]
E|------------------------------------|]
Porque cada vez que te alejas me dejas, desangrar
Porque cada vez que te largas me arrancas, me descarnas
No ya no hay mas, ya no hay mas
ya cortaste mis brazos, mis piernas, 
y ya no doy mas, ya no hay mas
ya mi carne se encuentra contigo en otro lugar

-=Arpegio=-
    C#m          Dm       C#m      A/F     A
e|--4---4--------5--------4--------0-------0--|]
B|--5--5-5------5-5------5-5------0-0------2--|]
G|--6-6---6----6---6----6---6----2---2---2-2--|]
D|--66-----6--7-----7--6-----6--3-----3-2--2--|]
A|--4--------7--------4--------0-------0---0--|]
E|--------------------------------------------|]
    A/F    A5   A      A/F    A5   A
e|------------------------------------|]
B|-----0--------2---------0--------2--|]
G|----2--2---2--2--------2--2---2--2--|]
D|---3----3-2---2-------3----3-2---2--|]
A|--0------0----0------0------0----0--|]
E|------------------------------------|] x4

Perdí la forma de poder acariciarte
sólo la boca me quedo, para llamarte
    A/F    A5   A      A/F    A5   A
e|------------------------------------|]
B|-----0--------2---------0--------2--|]
G|----2--2---2--2--------2--2---2--2--|]
D|---3----3-2---2-------3----3-2---2--|]
A|--0------0----0------0------0----0--|]
E|------------------------------------|]
o lo viví, o lo soñé, o lo viví, o lo viví 
    D   D/G    D   D/G    D   D/G    D   D5
e|--2---3------2---3------2---3------2---0--|]
B|--3---3------3---3------3---3------3---3--|]
G|--2---2------2---2------2---2------2---2--|]
D|--0---0------0---0------0---0------0---0--|]
A|------------------------------------------|]
E|------------------------------------------|]

-=Guitarra Eléctrica=-
   A/C  A/D  A/C  G#/B  E/B 
e|-----------------------0--|]
B|-----------------------0--|]
G|--5----7----5----4--------|]
D|--7----7----7----6--------|]
A|--------------------------|]
E|--------------------------|] x3
    Dm   D/G      A    D/G Dm   A 
e|--1-1-1-3-1-----0-0-0--3-1----0-0-0--|]
B|--3-3-3-3-3-----2-2-2--3-3----2-2-2--|]
G|--2-2-2-2-2-x2--2-2-2--2-2----2-2-2--|]
D|----------------2-2-2---------2-2-2--|]
A|-------------------------------------|]
E|-------------------------------------|] x2

Sálvame, no me dejes sangrar
ya no queda mas, no me dejes sangrar
    D5           A#5Maj      A#5         C5
e|--------------------------------------------------|]
B|--6-x-6-6-6---------------------------------------|]
G|--7-x-7-7-7----7-x-7-7-7---6-x-6-6-6-x-6-x-6-6-6--|]
D|--7-x-7-7-7----8-x-8-8-8---8-x-8-8-8-x-8-x-8-8-8--|]
A|--5-x-5-5-5----8-x-8-8-8---8-x-8-8-8-x-8-x-8-8-8--|]
E|---------------6-x-6-6-6---6-x-6-6-6-x-8-x-8-8-8--|] x2

-=Coro c/dist=-
Porque cada vez que te alejas me dejas, desangrar
Porque cada vez que te largas me arrancas, me descarnas
    C#5         D5          E5*          B5           
e|----------------------------------------------------|]
B|--------------------------9-x-x-x-9-----------------|]
G|--6-x-x-x-6---7-x-x-x-7---9-x-x-x-9-----------------|]
D|--6-x-x-x-6---7-x-x-x-7---9-x-x-x-9----9-9-9-9-9-9--|]
A|--4-x-x-x-4---5-x-x-x-5---7-x-x-x-7----9-9-9-9-9-9--|]
E|---------------------------------------7-7-7-7-7-7--|] x2

No ya no hay mas,   ya no hay mas,   ya cortaste mis brazos, mis piernas
               G#              E*            E5                   B5
          e|-------------------------------------------------------------------|]
          B|-------------------------------------------------------------------|]
          G|--6-4-6-\-------------------------9-x-x-9-x-x-9-x-x----------------|]
          D|--6-4-6-\----------7-6-7-\--------9-x-x-9-x-x-9-x-x---9-9-9-9-9-9--|]
          A|-------------------7-6-7-\--------7-x-x-7-x-x-7-x-x---9-9-9-9-9-9--|]
          E|------------------------------------------------------7-7-7-7-7-7--|]

y ya no doy mas,    ya no hay mas,   ya mi carne se encuentra contigo en otro lugar
             G#              E*            E5                        B5
         e|------------------------------------------------------------------------|]
         B|------------------------------------------------------------------------|]
         G|--6-4-6-\-----------------------9-x-x-9-x-x-9-x-x-----------------------|]
         D|--6-4-6-\---------7-6-7-\-------9-x-x-9-x-x-9-x-x---------9-9-9-9-9-9-9-|]
         A|------------------7-6-7-\-------7-x-x-7-x-x-7-x-x---------9-9-9-9-9-9-9-|]
         E|----------------------------------------------------------7-7-7-7-7-7-7-|]

-=Outro=- Guitarra Acústica
      C#m        Dm      E*               Em*
e|------4---------5------------------------7-----|]
B|-----5-5-------5-5------9-7h9p7--------7--7----|]
G|----6---6-----6---6----9-------9------8----8---|]
D|---6-----6---7-----7--9---------9----9------9--|]
A|--4------------------7-----------7-------------|]
E|-----------5-----------------------7-----------|]

         Dm     A
e|-------5------5--|]
B|------5-5-----5--|]
G|-----6---6----6--|]
D|----7-----7---7--|]
A|--------------7—-|]
E|--5-----------5--|]

Espero les guste, cualquier comentario o corrección enviarme un correo,
ragarideath@hotmail.com, Tijuana, BC, México.
Tab By: Ramón Guillermo Galáz Rios
Tap to rate this tab
# A B C D E F G H I J K L M N O P Q R S T U V W X Y Z