Song name
# A B C D E F G H I J K L M N O P Q R S T U V W X Y Z

La Dispute - Damaged Goods tab

Band: La Dispute
Album: Somewhere at the Bottom of the River Between Vega and Altair
Song: Damaged Goods

Tabbed by punkforlife93
Tuning Drop D

(Note: I didnít want to tab both guitars, but the other one is fairly easy to figure 
 I just tabbed what I assumed
was the lead. Enjoy!)

INTRO

E|-----------------------------------------|
B|-----------------------------------------|
G|---7-7-xxx-9-9-xxx-12-12-xxx-14-14-xxx---| PLAY
D|---x-x-xxx-x-x-xxx--x--x-xxx--x--x-xxx---|  4X
A|---5-5-xxx-7-7-xxx-10-10-xxx-12-12-xxx---|
D|-----------------------------------------|

VERSE 1

E|-----------------------------------------------------------------------------------------|
B|-----------------------------------------------------------------------------------------|
G|-----------------------------------------------------------------------------------------|
D|-----------------------------------------------------------------------------------------|
A|---3-0-3h5p3-3-0-3h5p3-3-0-3h5p3-3-00-000-3-0-3h5p3-3-0-3h5p3-3-0-3h5p3------------------|
D|---3-0-------3-0-------3-0-------3-00-000-3-0-------3-0-------3-0-------3h5p0h3h5p0h3h5--|
                                   PM------------------------------------------------------|

E|---------------------------------------------------------------------------------------|
B|---------------------------------------------------------------------------------------|
G|---------------------------------------------------------------------------------------|
D|---------------------------------------------------------------------------------------|
A|---3-0-3h5p3-3-0-3h5p3-3-0-3h5p3-3-00-000-3-0-3h5p3-3-0-3h5p3-3-0-3h5p3----------------|
D|---3-0-------3-0-------3-0-------3-00-000-3-0-------3-0-------3-0-------3h5p0-7p0-5p0--|
                                   PM----------------------------------------------------|

PRECHORUS

E|---------------------------------------------------------------------------------|
B|---------------------------------------------------------------------------------|
G|---------------------------------------------------------------------------------|
D|---0-xxxxxxxxxxxxxx-0-xxxxxx-------------0-xxxxxxxxxxxxxx-0-xxxxxx---------------|
A|---0-xxxxxxxxxxxxxx-0-xxxxxx-------------0-xxxxxxxxxxxxxx-0-xxxxxx---------------|
D|---0-xxxxxxxxxxxxxx-0-xxxxxx-7p5p0-5p0-3-0-xxxxxxxxxxxxxx-0-xxxxxx-7p5p0-5p0-3---|

E|------------------------------------------------------------------------------|
B|------------------------------------------------------------------------------|
G|-----7-----------------------------------7------------------------------------|
D|---0-x-------------0-000-0-------------0-x-------------0-000-0-0-0------------|
A|---0-5-------------0-000-0-------------0-5-------------0-000-0-0-0------------|
D|---0---7p5p0-5p0-3-0-000-0-7p5p0-5p0-3-0---7p5p0-5p0-3-0-000-0-0-0-000000-----|
                     PM---|                              PM---|PM-|PM-----------|

E|----------------------------------------------------------------------|
B|----------------------------------------------------------------------|
G|----------------------------------------------------------------------|
D|---0----------------------------5---0----------------------------5\---|
A|---0----------------------------5---0----------------------------5\---|
D|---0----------------------------5---0----------------------------5\---|

CHORUS

E|------------10-----------------------------10--------------------|
B|-----------------------------------------------------------------|
G|-----------------------------------------------------------------| PLAY
D|---------------101010555330-000-0-------------1010105553-3-------|  2X
A|---0-00-3-0----101010555330-000-0-0-00-3-0----1010105553-3-------|
D|---0-00-3-0----101010555330-000-0-0-00-3-0----1010105553-3-------|
     PM--|                  PM---|  PM-----------------------------|

VERSE 2

E|-----------------------------------------------------------------------------------------|
B|-----------------------------------------------------------------------------------------|
G|-----------------------------------------------------------------------------------------|
D|-----------------------------------------------------------------------------------------|
A|---3-0-3h5p3-3-0-3h5p3-3-0-3h5p3-3-00-000-3-0-3h5p3-3-0-3h5p3-3-0-3h5p3------------------|
D|---3-0-------3-0-------3-0-------3-00-000-3-0-------3-0-------3-0-------3h5p0h3h5p0h3h5--|
                                   PM------------------------------------------------------|
E|-----------------------------------------------------------------------------------------|
B|-----------------------------------------------------------------------------------------|
G|-----------------------------------------------------------------------------------------|
D|---3-0-------3-0-------3-0-------3-5---3-0-------3-0-------3-0-------3-5-----------------|
A|---3-0-3h5p3-3-0-3h5p3-3-0-3h5p3-3-5---3-0-3h5p3-3-0-3h5p3-3-0-3h5p3-3-5-----------------|
D|---3-0-------3-0-------3-0-------3-5---3-0-------3-0-------3-0-------3-5-----------------|

BRIDGE

E|--------------------------------------------------------------------------------------------|
B|--------------------------------------------------------------------------------------------|
G|-----------------------------------------------5/7-5----------------------------------------|
D|---0-------------3---5---0-------3---5---0-----x-x-x---3---5---0-----------------3---5-5-5--|
A|---0-----3h5p3p0-3---5---0-------3---5---0-----3/5-3---3---5---0-000000000000000-3---5-5-5--|
D|---0-------------3---5---0-------3---5---0-------------3---5---0-000000000000000-3---5-5-5--|
                                                                 PM---------------------------|

E|-----------------------------------------------------------|
B|-----------------------------------------------------------|
G|-----------------------------------------------------------|
D|---0-0-------3333333355555555-0-0-------3333333355555555---|
A|---0-0-------3333333355555555-0-0-------3333333355555555---|
D|---0-0-------3333333355555555-0-0-------3333333355555555---|

SOLO

E|---10----10-10----------------------------------------------|
B|---13b15-13-10---13-10b8-8b7-7-7----------------------------|
G|-------------------------------------------------------10---|
D|---------------------------------7h10p7h10-10h12p10h12------|
A|------------------------------------------------------------|
D|------------------------------------------------------------|
                      (For this bit, use the whammy to bend it downwards all the way to the 7)

E|--------------------------------------------------------------------|
B|--------------------------------------------------------------------|
G|------10-------------------14p12p10----------------------------12---|
D|---12----12-10h12-12-12-12----------14p12p10-10h12-12-15p14p12------|
A|--------------------------------------------------------------------|
D|--------------------------------------------------------------------|

E|---15p10h13------------------------------------------------------------|
B|------------15p10h13---------------------------------------------------|
G|---------------------14p10h12----------14p10h12----------12-12-12-12---|
D|------------------------------15p10h12----------15p10h12---------------|
A|-----------------------------------------------------------------------|
D|-----------------------------------------------------------------------|

(This part is tricky, because of the transition to tapping.  What I prefer
to do is bar the 10 with my left index finger, hammer on with my left ring finger, and 
off with my right middle finger, while holding the pick like normal, so I can hit the 12 
at the end relatively easily.  But itís a matter of personal preference.)

E|-------------|
B|---3-3---5---|
G|---7-7---9---|
D|---0-0---0---|
A|---5-5---7---|
D|-------------|

x = mute
p = pull off
h = hammer on
/ = slide up
\ = slide down
b = bend
PM = palm mute
Tap to rate this tab
# A B C D E F G H I J K L M N O P Q R S T U V W X Y Z