Song name
# A B C D E F G H I J K L M N O P Q R S T U V W X Y Z

La Dispute - Such Small Hands tab

Such Small Hands by La Dispute
Tuning: Standard
EADGBe

e-------8--8--7--7--8--8----------|
B----10-10-10-10-10-10-10---------|
G--9-9----------------------------|
D---------------------------------|x2
A---------------------------------|
E---------------------------------|

e--------8--8--13-13-13-13--------|
B-----10-10-10-10-10-10-10--------|
G--10-10--------------------------|
D---------------------------------|
A---------------------------------|
E---------------------------------|

e--------8--8--17-17-15-15--------|
B-----10-10-10--------------------|
G--10-10-------14-14-14-14--------|
D---------------------------------|
A---------------------------------|
E---------------------------------|

This is basically it for most of the song just with slight different rythms, and after 
this twice the next do instead of 17-17-15-15 on the high e it goes 17-17-19-19
And then at the very end:

e---------------------------------|
B---------------------------------|
G---10-10-10-10-------------------|
D---------------------------------|
A---8--8--8--8--------------------|
E---------------------------------|
just that strummed a lot
Tap to rate this tab
 
# A B C D E F G H I J K L M N O P Q R S T U V W X Y Z