La Dispute - Ten tab

			     Ten - La Dispute                             Tabbed by: Kamdude
Email: triathlete_max@hotmail.com

Tuning: Standard

First Guitar. It sounds best picking with your fingers

e|-----------------------------|
B|-----------------------------|
G|-----------------------------|  Many, Many Times
D|----------9-------9-7--------|
A|--0-7-9-7---0-7-9------------|
E|-----------------------------|

Second Guitar

e|---------------------------------------------------------------------|
B|---------------------------------------------------------------------|
G|---------------------------------------------------------------------|
D|--14--11-----------14---11-------------14----11---------------9h7----|  x2
A|---------------------------------------------------------------------|
E|---------------------------------------------------------------------|


@ around 2:20 (it gradually builds up)

e|-------------------------------------|
B|-------------------------------------|
G|-2-2--0-2-2--0--2-2--0-2-2-----------|  Repeat
D|-2-2--0-2-2--0--2-2--0-2-2-----------|
A|-------------------------------------|
E|-------------------------------------|


Then @ 2:36 "I have tried to stay hopeful.."

e|--------------------------------|
B|--------1-----------------------|
G|------2----------0------0h2-----|  x4
D|----2----------2------3---------|
A|-------------2------3-----------|
E|--------------------------------|


e|-------------------------------------|
B|-------------------------------------|
G|-2-2--0-2-2--0--2-2--0-2-2-----------|
D|-2-2--0-2-2--0--2-2--0-2-2-----------|
A|-------------------------------------|
E|-------------------------------------|

Repeat the previous many times till until the final:

e|-----------------------------|
B|-----------------------------|
G|-----------------------------| x 4
D|----------9-------9-7--------|
A|--0-7-9-7---0-7-9------------|
E|-----------------------------|


Enjoy! I've loved this song for a while now and finally decided to learn it on guitar. 
Please rate or comment
Tap to rate this tab
 
# A B C D E F G H I J K L M N O P Q R S T U V W X Y Z