Song name
# A B C D E F G H I J K L M N O P Q R S T U V W X Y Z

La Dispute - How I Feel tab

----------------------------------------------------------------------------------------------|
How I Feel - La Dispute
----------------------------------------------------------------------------------------------|

Tabbed by: x3ricxblink182

Email: x3ricxblink182@aim.com

Very cool song. I'll post this in Drop D tuning only because that's what the guitarists
are tuned to when they play it. And because the power chords are easier to hit. Besides
that, this doesn't have to necessarily have to be tuned in anything but Standard. But
yeah, enjoy!


Intro:

E|----------------------|
B|--3333333333333333----|
G|--4444444444444444----|
D|--2222222222222222----|
A|----------------------|
D|----------------------| x2

Figure 1:

E|--------------------------------|
B|--------------------------------|
G|--------------------------------|
D|--2-------2-------2-------5-5---|
A|--2-3p2p0-2-3p2p0-2-3p2p0-5-5---|
D|--2-------2-------2-------5-5---| x4

Figure 2:

E|------------------------|
B|------------------------|
G|------------------------|
D|--9--12--5~--4--7--2~---|
A|--9--12--5~--4--7--2~---|
D|--9-/12-\5~--4-/7-\2~---| x4

Figure 3:

E|--------------------------|
B|--------------------------|
G|--------------------------|
D|--2-xxx-2-xxx-2-xxx-5-5---|
A|--2-xxx-2-xxx-2-xxx-5-5---|
D|--2-xxx-2-xxx-2-xxx-5-5---| x4

Repeat Intro:

E|----------------------|
B|--3333333333333333----|
G|--4444444444444444----|
D|--2222222222222222----|
A|----------------------|
D|----------------------| x Until bass comes in

Figure 4:

E|---------------------------------|
B|---------------------------------|
G|---------------------------------|
D|---------------------------------|
A|-222222222~~--22222222-444444444-|
D|-555555555~~--44444444-777777777-| x4


End on:

E|---------|
B|---------|
G|---------|
D|---------|
A|--2~~~---|
D|--5~~~---|
Tap to rate this tab
 
# A B C D E F G H I J K L M N O P Q R S T U V W X Y Z