Song name
# A B C D E F G H I J K L M N O P Q R S T U V W X Y Z

La Dispute - Harder Harmonies tab

-----------------------------------------------------------------------------
			 Harder Harmonies - La Dispute
-----------------------------------------------------------------------------

Tabbed by: x3ricxblink182

Email: x3ricxblink182@aim.com

Tuning: Posted as Drop D, but Standard will also work


(August 23rd 2011) Brand new song by La Dispute from their album "Wildlife" !



Figure 1:

“Like a shadow on a shadow…”

E|---------------------------|
B|--111111-------------------|
G|--222222--222-000-0h3333---|
D|--222222-------------------|
A|--000000-------------------|
D|---------------------------| x4


“It’s a shame…”

E|-----------------------------|
B|-----------------------------|
G|--77777777777-555555555555---|
D|--xxxxxxxxxxx-xxxxxxxxxxxx---|
A|--55555555555/333333333333---|
D|-----------------------------|


Figure 2:

“…awake. He says…”

E|----------------------------------|
B|--11111h33p1111-------------------|
G|--2222222222222--222-000-0h3333---|
D|--2222222222222-------------------|
A|--0000000000000-------------------|
D|----------------------------------| x4


“…in place…”

E|-----------------------------|
B|-----------------------------|
G|--77777777777-555555555555---|
D|--xxxxxxxxxxx-xxxxxxxxxxxx---|
A|--55555555555/333333333333---|
D|-----------------------------|


Figure 3:

E|----------------------------------|
B|--1-xxx-11-----8------------------|
G|--2-xxx-22------9p7-------8h9-----|
D|--2-xxx-22---------10p7-------10--|
A|--0-xxx-00-------------10---------|
D|----------------------------------| x4


Figure 4:

E|----------------------------------|
B|----------------------------------|
G|--5-7-xxx-5-7-xxx-5-7-5-8-8-7-7---|
D|--x-x-xxx-x-x-xxx-x-x-x-x-x-x-x---|
A|--3/5-xxx-3/5-xxx-3/5-3/6-6\5-5---|
D|----------------------------------| x2


Figure 5:

E|--0------0~~~---|
B|--1-xxxx-1~~~---|
G|--2-xxxx-2~~~---|
D|--2-xxxx-2~~~---|
A|--0-xxxx-0~~~---|
D|----------------|

“It feels so right…”

“When nothing else does…”

E|--------------0~~---|
B|--8-----------1~~---|
G|-----9--7b-5--2~~---|
D|-----------7--2~~---|
A|--------------0~~---|
D|--------------------|


Figure 6:

E|---------------------------------|
B|--1-xxx-1-----8------------------|
G|--2-xxx-2------9p7-------8h9-----|
D|--2-xxx-2---------10p7-------10--|
A|--0-xxx-0-------------10---------|
D|---------------------------------| 
                                        x4
E|-------------------------|
B|--1-xxx-1----------------|
G|--2-xxx-2----------------|
D|--2-xxx-2-----/2-0-/2/5--|
A|--0-xxx-0----------------|
D|-------------------------|


“…falls to the floor…”

E|--0~~~---|
B|--1~~~---|
G|--2~~~---|
D|--2~~~---|
A|--0~~~---|
D|---------|



“Like a voice in the choir…”

E|-----------------------------|
B|-111111111111----------------|
G|-222222222222--77777-101010--|
D|-222222222222--xxxxx-xxxxx---|
A|-000000000000--55555/88888---|
D|-----------------------------|

E|-----------------------------|
B|-111111111111----------------|
G|-222222222222--77777---------|
D|-222222222222--xxxxx-33333---|
A|-000000000000--55555-33333---|
D|---------------------33333---|

E|-----------------------------|
B|-111111111111----------------|
G|-222222222222--77777-101010--|
D|-222222222222--xxxxx-xxxxx---|
A|-000000000000--55555/88888---|
D|-----------------------------|

E|--------------------------------------|
B|-111111111111-------------------------|
G|-222222222222--77777------------------|
D|-222222222222--xxxxx-33-3x-33-3x-33---|
A|-000000000000--55555-33-3x-33-3x-33---|
D|---------------------33-3x-33-3x-33---|



Figure 7:

E|----------------------------------|
B|--10b^------------------8~--10~---|
G|--------9-7-9-12-9~---------------|
D|----------------------------------|
A|----------------------------------|
D|----------------------------------|

E|----------------------------------------|
B|------------------------8~--------------|
G|---9~-----9-7-9-12-9~--------7~--/9b^~--|
D|----------------------------------------|
A|----------------------------------------|
D|----------------------------------------|

E|--------------------------------------|
B|-----------10-8-10-13-10~-----8~-10~--|
G|--\9b~------9-7--9-12--9~-----7~--9~--|
D|--------------------------------------|
A|--------------------------------------|
D|--------------------------------------|

E|-----------------------------------------|
B|--10------10-8-10-13-10~----10-9-8-7-----|
G|---9~------9-7--9-12--9~-----9-9-9-9-9b--|
D|-----------------------------------------|
A|-----------------------------------------|
D|-----------------------------------------|

E|--------------------------|
B|--------------------------|
G|--9~---------------2~-----|
D|-----------7-6-5-2-2~-----|
A|-------------------0~-----|
D|--------------------------|


After that, it’s just a bunch of noise and feedback.
If you please, just play obnoxious open notes.

“There’s a melody is everything. 
I’m trying to find the harmony. 
But nothing seems to work. 
Nothing seems to fit…”



(Bass plays out)

There’s a melody is everything. 

I’m trying to find the harmony. 

But nothing seems to work. 

Nothing… fits…




Tap to rate this tab
 
# A B C D E F G H I J K L M N O P Q R S T U V W X Y Z