Song name
# A B C D E F G H I J K L M N O P Q R S T U V W X Y Z

La Dispute - Edit Your Hometown tab

-----------------------------------------------------------------------------
		      Edit Your Hometown - La Dispute
-----------------------------------------------------------------------------

Tabbed by: x3ricxblink182

Email: x3ricxblink182@aim.com

Tuning: Standard



Figure 1:       ( x2 )

E|-------------------------------------------------------------------------|
B|-------------------------------------------------------------------------|
G|---------------------------------999-------------------------------------|
D|---------------------------------xxx-------------------------------------|
A|--7-77-777-777-444-5-55-555-555-/777-4-44-444-444-44--7-77-777-9-99-999--|
E|--9-99-999-999-555-2-22-222-222------5-55-555-555-55--9-99-999-0-00-000--| 


Figure 2:

E|-------------------------------------------------------------------------|
B|-------------------------------------------------------------------------|
G|---------------------------------999-------------------------------------|
D|---------------------------------xxx------------------5-55-555-4-44-444--|
A|--7-77-777-777-444-5-55-555-555-/777-4-44-444-444-44--5-55-555-4-44-444--|
E|--9-99-999-999-555-2-22-222-222------5-55-555-555-55--3-33-333-2-22-222--|

E|----------------------------------------------------------xxx------------|
B|----------------------------------------------------------xxx------------|
G|---------------------------------999----------------------xxx------------|
D|---------------------------------xxx------------------5-5-xxx--4-4-------|
A|--7-77-777-777-444-5-55-555-555-/777-4-44-444-444-44--5-5-xxx--4-4-------|
E|--9-99-999-999-555-2-22-222-222------5-55-555-555-55--3-3-xxx--2-2-------|


Figure 3:

E|---------------------------------------------------------|
B|---------------------------------------------------------|
G|---------------------------------------------------------|
D|--5-5-5-5-5-5-5-5-5-5-5-5-5--9-9-9-9-9-9-9-9-9-9-9-9-9---|
A|--5-5-5-5-5-5-5-5-5-5-5-5-5--9-9-9-9-9-9-9-9-9-9-9-9-9---|
E|--3-3-3-3-3-3-3-3-3-3-3-3-3--7-7-7-7-7-7-7-7-7-7-7-7-7---|

E|---------------------------------------------------------|
B|---------------------------------------------------------|
G|---------------------------------------------------------|
D|--5-5-5-5-5-5-5-5-5-5-5-5-5------------------------------|
A|--5-5-5-5-5-5-5-5-5-5-5-5-5--4-4-4-4-4-4-4-4-4-4-4-4-4---|
E|--3-3-3-3-3-3-3-3-3-3-3-3-3--5-5-5-5-5-5-5-5-5-5-5-5-5---|

E|------------------------------|
B|------------------------------|
G|------------------------------|
D|------------------------------|
A|--5-5-5-5-5-5-5-5-5-5-5-5-5---|
E|--7-7-7-7-7-7-7-7-7-7-7-7-7---|

E|-x-x-x-x-x--|
B|-x-x-x-x-x--|
G|-x-x-x-x-x--|
D|-x-x-x-x-x--|
A|-x-x-x-x-x--|
E|-x-x-x-x-x--|


Figure 4:       ( x2 )

E|-------------------------------------------------------------------------|
B|-------------------------------------------------------------------------|
G|---------------------------------999-------------------------------------|
D|---------------------------------xxx-------------------------------------|
A|--7-77-777-777-444-5-55-555-555-/777-4-44-444-444-44--7-77-777-9-99-999--|
E|--9-99-999-999-555-2-22-222-222------5-55-555-555-55--9-99-999-0-00-000--| 


Figure 5:

E|----------x-xx-x--xx-----------|
B|----------x-xx-x--xx----0~-----|
G|----------x-xx-x--xx----0~-----|
D|----------x-xx-x--xx-----------|
A|--7-77x---x-xx-x--xx-----------|
E|--9-99x---x-xx-x--xx-----------| 

E|---------------------------------------|
B|---------------------------------------|
G|---------------------------------------|
D|---------------------------------------|
A|---4-44-444-444-44--7-77-777-9-99-999--|
E|---5-55-555-555-55--9-99-999-0-00-000--|

E|-------------------------------------------------------------------------|
B|-----------------------------0~------------------------------------------|
G|-----------------------------0~------------------------------------------|
D|-------------------------------------------------------------------------|
A|--7-77-------------5-55--------------4-44-444-444-44--7-77-777-9-99-999--|
E|--9-99-------------2-22--------------5-55-555-555-55--9-99-999-0-00-000--|


Figure 6:

E|----------------------------x-xx-------|
B|----------------------------x-xx-------|
G|--9-99-999-999--666-4-4444--x-xx-------|
D|--x-xx-xxx-xxx--xxx-4-4444--x-xx-------|
A|--7-77-777-777--444-2-2222--x-xx-------|
E|--9-99-999-999-/555---------x-xx-------| 

E|---------------------------------------|
B|----------------555--------------------|
G|--9-99-999-999--666-4-4444-------------|
D|--x-xx-xxx-xxx--xxx-4-4444-------------|
A|--7-77-777-777--444-2-2222-------------|
E|--9-99-999-999-/555--------------------| 


Figure 7:

E|-----------------------------------------------------------|
B|------------------------------------0-0~-----------0-0~----|
G|------------------------------------7-6~-----------7-6~----|
D|--5-5-5-5-5-5-5-5-5-5-5-5-5-77--9/-------------9/----------|
A|--5-5-5-5-5-5-5-5-5-5-5-5-5-77--9/-------------9/----------|
E|--3-3-3-3-3-3-3-3-3-3-3-3-3/55--7/-------------7/----------| x2


Figure 8:

E|--------------------------------|
B|--------------------------------|
G|--------------------------------|
D|--5-5-5-5-5-5-5-5-5-5-5-5-5-77--|
A|--5-5-5-5-5-5-5-5-5-5-5-5-5-77--|
E|--3-3-3-3-3-3-3-3-3-3-3-3-3/55--| 

E|-------------------------------------------|
B|-------------------------------------------|
G|--12-12-12-12-12-12-12-12-12-12-12-12--14--|
D|---x--x--x--x--x--x--x--x--x--x--x--x---x--|
A|--10-10-10-10-10-10-10-10-10-10-10-10-/12--|
E|-------------------------------------------| 

E|-------------------------------------------|
B|-------------------------------------------|
G|--16-16-16-16-16-16-16-16-16-16-16-16--14--|
D|---x--x--x--x--x--x--x--x--x--x--x--x---x--|
A|--14-14-14-14-14-14-14-14-14-14-14-14-/12--|
E|-------------------------------------------| 


Figure 9:

E|-------------------------------------------------------------------------|
B|-------------------------------------------------------------------------|
G|---------------------------------999-------------------------------------|
D|---------------------------------xxx-------------------------------------|
A|--7-77-777-777-444-5-55-555-555-/777-4-44-444-444-44--7-77-777-9-99-999--|
E|--9-99-999-999-555-2-22-222-222------5-55-555-555-55--9-99-999-0-00-000--| 

E|------------------------------------------------------------------|
B|------------------------------------------------------------------|
G|---------------------------------999------------------------------|
D|---------------------------------xxx------------------------------|
A|--7-77-777-777-444-5-55-555-555-/777-4-44-444-444-44--7-7----9-9--|
E|--9-99-999-999-555-2-22-222-222------5-55-555-555-55--9-9----0-0--| 


End with:

E|--------|
B|--------|
G|--9~~---|
D|--x~~---|
A|--7~~---|
E|--9~~---|
Tap to rate this tab
 
# A B C D E F G H I J K L M N O P Q R S T U V W X Y Z