Song name
# A B C D E F G H I J K L M N O P Q R S T U V W X Y Z

La Dispute - Such Small Hands tab

Chords: Am F C G

If you wish to play this with a singer instead of a spoken word/rap, use Cm instead of 
the C. To create a more dramatic feel.
To play the song like the original only use the intro riff throughout the whole song 
with a delay pedal

Introduction if you are playing with only one guitar
e|-------------------------------------------------------------------------|
B|---------1---------0--------1-------------1------------0---------1-------|
G|------2--------2--------2--------------2-----------2--------2------------|
D|----2------------------------------2-------------------------------------|
A|-------------------------------------------------------------------------|
E|-------------------------------------------------------------------------|

e|-------------------------------1--------------1--------------------------|
B|------------------1-------------------------------------------1----------|
G|------------2--------------2------------2-----------------2--------------|
D|-------3---------------------------------------------3-------------------|
A|-------------------------------------------------------------------------|
E|-------------------------------------------------------------------------|

e|---------------------5---------------3-----------------------------------|
B|-------------------------------------------------------------------------|
G|---------2--------------------2------------------------------------------|
D|-------------------------------------------------------------------------|
A|-------------------------------------------------------------------------|
E|-------------------------------------------------------------------------|

Reapeat x2

Intro
Am
I think I saw you in my sleep, darling,
F
I think I saw you in my dreams, you were
C
Stitching up the seams on every broken promise
That your body couldn't keep.
G
I think I saw you in my sleep.

I think I saw you in my sleep, darling,
I think I saw you in my dreams you were
Stitching up the seams on every broken promise
That your body couldn't keep.
I think I saw you in my sleep.

I thought I heard the door open, oh
No I thought I heard the door open but
I only heard it close.
I thought I heard a plane crashing, but
Now I think it was your passion snapping.

I think you saw me confronting my fear, it
Went up with a bottle and went down with the beer and
I think you ought to stay away from here
There are ghosts in the walls and they
Crawl in your head through your ear.

I think I saw you in my sleep, lover,
I think I saw you in my dreams you were
Stitching up the seams on every mangled promise
That your body couldn't keep.
I think I saw you in my sleep
Tap to rate this tab
# A B C D E F G H I J K L M N O P Q R S T U V W X Y Z