Song name
# A B C D E F G H I J K L M N O P Q R S T U V W X Y Z

La Dispute - Such Small Hands Acoustic chords

Highlighted       Show chord diagrams
The other one had the intro upside.
 Intro


|-----------0---------|
|------1-------1---1--|
|----2---2-------2----|
|--2------------------|
|---------------------|
|---------------------|x2


|----------0----------|
|------1-----1---1----|
|----2---2-----2------|
|--3------------------|
|---------------------|
|---------------------|

|----------0--3-------|
|------1--------------|
|----2---2------------|
|--3------------------|
|---------------------|
|---------------------|




Am
I think I saw you in my sleep, darling
F
I think I saw you in my dreams
                            C
You were stitching up the seams on every broken
                                 G
promise that your body couldn't keep

i think i saw you in my sleep.

Am
I think I saw you in my sleep, darling
F
I think I saw you in my dreams
                            C
You were stitching up the seams on every broken
                                 G
promise that your body couldn't keep

I think I saw you in my sleep.

Am                                    F
I thought I heard the door open, oh, no

Thought I heard the door open
                      C
But I only heard it close
                                     G
I thought I heard a plane crashing

But now I think it was your passion snapping
  
   Am
I think you saw me confronting my fear
         F
It went up with the bottle and went down with the beer and
C
I think you oughta stay away from here
            G
There are ghosts in the walls and they crawl in your head through your ears

Am
I think I saw you in my sleep, lover
F
I think I saw you in my dreams
                            C
You were stitching up the seams on every mangled promise that
                    G
Your body couldn't keep, I think I saw you in my sleep.
Tap to rate this tab
# A B C D E F G H I J K L M N O P Q R S T U V W X Y Z