Song name
# A B C D E F G H I J K L M N O P Q R S T U V W X Y Z

La Dispute - Nine tab

Artist: La Dispute
Song: Nine
Album: Here, Hear III
Tabbed by: gustavoaraujo999@hotmail.com

**Taken from this live version:  http://www.youtube.com/watch?v=fPppInfmpvo

Lead:
e|-----10-6----5--8------------------------5---------------------|
B|-8----------------5----------6-8-----6-------8---(5)-----------|
G|---------------------(5)--7------5-----------------------------|
D|---------------------------------------------------------------|
A|---------------------------------------------------------------|
E|---------------------------------------------------------------|

Rhythm: 
e|--------------------------------|
B|-3~--------6~-----6----------5--|
G|-3~--------7~-----5~-----5~-----|
D|-5~---5/7--8~-----7~-----5~-----|
A|-------------------------7~-----|
E|--------------------------------|

and then

e|-3-3~-------------1-1~---0-0~---|
B|-3-3~-----6-6~----1-1~---1-1~---|
G|-3-3~-----7-7~----2-2~---0-0~---|
D|-5-5~-----8-8~----3-3~---2-2~---|
A|-5-5~-----8-8~----3-3~---0-0~---|
E|--------------------------------|
Tap to rate this tab
# A B C D E F G H I J K L M N O P Q R S T U V W X Y Z