Song name
# A B C D E F G H I J K L M N O P Q R S T U V W X Y Z

La Dispute - Such Small Hands tab

E|---------------------------------|
B|----------13------12------13-----|
G|------14------14------14-----14--| x2
D|--14-----------------------------|
A|---------------------------------|
E|---------------------------------|
 
E|-----------------13--------------|------------------17------15------|
B|----------13---------13------13--|----------13----------13------13--|
G|------14------14---------14------|------14------14------------------|
D|--15-----------------------------|--15------------------------------|
A|---------------------------------|----------------------------------|
E|---------------------------------|----------------------------------|


(Played throughout Such Small Hands)



E|-----------------------------|
B|---13(x8)--12(x4)/13(x4)-----|
G|-----------------------------|   
D|-----------------------------|
A|-----------------------------|
E|-----------------------------|
 
  
(Played throughout Nobody not Even the Rain)
Tap to rate this tab
# A B C D E F G H I J K L M N O P Q R S T U V W X Y Z