Song name
# A B C D E F G H I J K L M N O P Q R S T U V W X Y Z

La Dispute - Safer In The Forest Love Song For Poor Michigan tab

Artist: La Dispute
Song: Safer In The Forest
Album: Wildlife
Tabbed by: gustavoaraujo999@hotmail.com

== GUITAR ONE ==
 
e|---------------------------------------------------------------|
B|-----7---8---7----------5----------0---------------------------|
G|-9-9---9---9---9----7-7---7----5-5---5-------------------------|
D|--------------------------------------------[x4]---------------|
A|---------------------------------------------------------------|
D|---------------------------------------------------------------|

e|---------------------------------------------------------------|
B|---------7-------8-------0-------------------------------------|
G|-----5-------5-------5-------5---------------------------------|
D|-7-7---7---7---7---7---7---7---7--------[x2]-------------------|
A|---------------------------------------------------------------|
D|---------------------------------------------------------------|

e|--------------------------------------------------------------|
B|---------8-------10-------8-----------------------------------|
G|-----7-------7--------7-------7-------------------------------|
D|-9-9---9---9---9----9---9---9---8------[x2]-------------------|
A|--------------------------------------------------------------|
D|--------------------------------------------------------------|

e|----------------8----------------------------------------------|
B|---7---10---7-------7---10---7---------------------------------|
G|-8---8----8---8---8---8----8---8-------------------------------|
D|--------------------------------------[x2]---------------------|
A|---------------------------------------------------------------|
D|---------------------------------------------------------------|

e|----------------7--------------|----------------7---8---7------|
B|---7---8---10-------10---8---7-|---7---8---10------------------|
G|-9---9---9----9---9----9---9---|-9---9---9----9---9---9--------|
D|-------------------------------|-------------------------------|
A|-------------------------------|-------------------------------|
D|-------------------------------|-------------------------------|

e|----------------8----------------|---------------10-7--------------|
B|---7---10---7-------7---10---7---|---7---10---7-------10-7---------|
G|-8---8----8---8---8---8----8---8-|-8---8----8--------------9/7-9-7-|
D|---------------------------------|---------------------------------|
A|---------------------------------|---------------------------------|
D|---------------------------------|---------------------------------|


"Like thunder underwater, he hears it fading and feels no pain at all."

e|-----0-----0-------0-------0----------0--------0-----------0-------0--|
B|-----0-----0-------0-------0----------0--------0-----------0-------0--|
G|-----0-----0-------0-------0----------0--------0-----------0-------0--|
D|-2-2-2-2-2-2-1-1-1-1-7-7-7-7---12-12-12-12-12-12-10-10-10-10-9-9-9-9--|
A|----------------------------------------------------------------------|
D|------------------------------[x2]------------------------------------|

e|---------------------------------------------------------------|
B|---------------------------------------------------------------|
G|---------------------------------------------------------------|
D|-----9-----9-----9-----9------5-----5-----5--------------------|
A|---9-----9-----9-----9------5-----5-----5-----5----------------|
D|-9-----9-----9-----9------5-----5-----5-----5------------------|

e|---------------------------------------------------------------|
B|---------------------------------------------------------------|
G|---------------------------------------------------------------|
D|-----9-----9-----9-----9-----5-----5-----5---------------------|
A|---9-----9-----9-----9-----5-----5-----5-----5-----------------|
D|-9-----9-----9-----9-----5-----5-----5-----5-------------------|

e|---------------------------------------------------------------|
B|---------------------------------------------------------------|
G|---------------------------------------------------------------|
D|-----7-----7-----7--------------9-----9-----9------------------|
A|---7-----7-----7-----7----9---9-----9-----9-----9--------------|
D|-7-----7-----7-----7----9---9-----9-----9-----9----------------|

e|---------------------------------------------------------|
B|---------------------------------------------------------|
G|--------------------------------7-----7-----7------------|
D|-----5-----5-----5------------7-----7-----7-----7-----6--|
A|---5-----5-----5-----5---4--5-----5-----5-----5-----4----|
D|-5-----5-----5-----5---4---------------------------------|

e|---------------------------------------------------------------|
B|---------------------------------------------------------------|
G|---------------------------------------------------------------|
D|-----9-----9-----9------------5-----5-----5--------------------|
A|---9-----9-----9-----9------5-----5-----5-----5-----4----------|
D|-9-----9-----9-----9------5-----5-----5-----5-----4------------|

B|---------------------------------------------------------------|
G|---------------------------------7777777-----------------------|
D|-2-----------77777777--2---------7777777-----------------------|
A|-2-5/7--7/2--77777777--2-5/7-7/2-5555555-----------------------|
D|-2-----------77777777--2---------------------------------------|

e|---------------------------------------------------------------|
B|---3/5-----------------------3/5-------------------------------|
G|-------7-4---4h7p4---------------7-4---4-----------------------|
D|-2---------7-------7777777-2---------7-------------------------|
A|-2-----------------7777777-2-----------------------------------|
D|-2-----------------7777777-2-----------------------------------|
Tap to rate this tab
# A B C D E F G H I J K L M N O P Q R S T U V W X Y Z