Song name
# A B C D E F G H I J K L M N O P Q R S T U V W X Y Z

La Dispute - A Broken Jar tab

I haven't seen any tabs for this song, and I can understand why. Lots of really weird chords.
I'm not even sure if it's correct, but sounds close enough.

Intro (bend every note halftone)
E|----------------------------------------------------------|
B|-------7-77-----------------------------------------------|
G|-----8------8---------------------------------------------|
D|---8----------8-------------------------------------------|
A|-6--------------6-----------------------------------------|
E|----------------------------------------------------------|

Verse                                         (at the end)
E|--------------------------------------------|-------------|
B|--------------------------------------------|-------------|
G|------10-10-10------10-10-----10--------10--|--10---------|
D|---10-10-8--10------8--8------10--------10--|--10--6------|
A|-8----------------8---------8---------8-----|--8---6------|
E|----------------9---------6---------6-------|-6---4-------|

Prechorus
E|----------------------------------------------------------|
B|----------------------------------------------------------|
G|--------------------------------------------10-10-10-10---|
D|---8----8---8----10-11-11-13-11-10-10-11-10-7--7--7--7----|
A|-8---11---9---11----8--8--8--8--0--0--0--0----------------|
E|----------------------------------------------------------|

Chorus
E|----------------------------------------------------------|
B|----------------------------------------------------------|
G|-10--13--10--8--10--10-10---10-----9-----/16--------------|
D|-11--11--8---8--8---7----8-8--10-10-10-10-----------------|
A|-9---9---8---8--8---8-----8-----8-----7-------------------|
E|----------------9-----------------------------------------|

Verse (same)

Prechorus 2
E|----------------------------------------------------------|
B|----------------------------------------------------------|
G|----------------------------------------8---10------------|
D|---8----8---8----11-11-13/15-11-10--11--7---7-------------|
A|-8---11---9---11----0-----------8---8---------------------|
E|----------------------------------------------------------|

Chorus 2
E|----------------------------------------------------------|
B|----------------------------------------------------------|
G|----------------------------------------------------------|
D|-11--8---8---8---8---10--10-------------------------------|
A|-9---8---8---8---8---8---7---7----------------------------|
E|-9---8---9---6---9---8---8---8----------------------------|
Tap to rate this tab
 
# A B C D E F G H I J K L M N O P Q R S T U V W X Y Z