Song name
# A B C D E F G H I J K L M N O P Q R S T U V W X Y Z

La Dispute - A Poem tab

La Dispute - a Poem

Bass line
E|-----------------------------------------------------------|
B|-----------------------------------------------------------|
G|---------------2-----5-----------------2-----2-------------|
D|-0-----0---2-3---3-2----20-----0---2-3---3-2----2----------|
A|---0-03--0-----------------0-03--0-------------------------|
E|-----------------------------------------------------------|

                                2x, bend the high notes
E|-----------------------------|-----------------------------|
B|--3------3-------------------|--3---3----------3--5--------|
G|--2----2-2--2-----2-----5----|-(2)-----5---2---------------|
D|--3-----30----0-3---3-2----2-|-(0)--------(0)--------------|
A|--0------0-------------------|-(0)--------(0)--------------|
E|-----------------------------|-----------------------------|

E|--0-0-----0-30------0-0-----0-30---------------------------|
B|--3--3-1--3---3-1---3--3-1--3---3-1------------------------|
G|--2---2---2----2----2---2---2----2-------------------------|
D|--0-------0---------0-------0------------------------------|
A|--0-------0---------0-------0------------------------------|
E|-----------------------------------------------------------|


 4x                             (also play this after 3rd repeat)
E|--0---1---0---1---3---1---0--|--10-9----------------------|
B|--3---1---1---1---3---3---2--|------11-10-8---------------|
G|--2---2---2---2---0---3---2--|-------------10-9-----------|
D|--0---3---2---3---0---0---2--|----------------------------|
A|--0---1---0---3--------------|----------------------------|
E|--------------1--------------|----------------------------|

Outro
 4x
E|-0-----0--------------------------------------------------|
B|-------------3-----3-----3-----3--------------------------|
G|-------------------------3-----3-----3-----2--------------|
D|-000000000000000000000000---------------------------------|
A|-------------------------111111111111------000000---------|
E|-------------------------------------111111---------------|
Tap to rate this tab
# A B C D E F G H I J K L M N O P Q R S T U V W X Y Z