Song name
# A B C D E F G H I J K L M N O P Q R S T U V W X Y Z

La Dispute - Then Again Maybe You Were Right tab

La dispute
Somewhere At the Bottom of the River Between Vega and Altair (2008)
Then Again, Maybe You Were Right

Drop D


Intro 0:00-0:09

E|-------|
B|-------|
G|-------|
D|---2~~~|
A|---2~~~|
D|---2~~~| x4


Verse 0:09-0:31
0
E|-------------------------------------------------------------|
B|-------------------------------------------------------------|
G|-------------------------------------------------------------|
D|---2-xxxx------xxxx-2222--7-5-3---2-xxxx------xxxx-2222-33---|
A|---2-xxxx------xxxx-2222--7-5-3---2-xxxx------xxxx-2222-33---|
D|---2-xxxx-xxxx-xxxx-2222--7-5-3---2-xxxx-xxxx-xxxx-2222-33---|

E|------------------------------------------------------------------|
B|------------------------------------------------------------------|
G|------------------------------------------------------------------|
D|---2-xxxx------xxxx-2222-7-5-3-5-2-3~--2-xxxx------xxxx-2222-33---|
A|---2-xxxx------xxxx-2222-7-5-3-5-2-3~--2-xxxx------xxxx-2222-33---|
D|---2-xxxx-xxxx-xxxx-2222-7-5-3-5-2-3~--2-xxxx-xxxx-xxxx-2222-33---|


E|--------------------------------------------------------------|
B|--------------------------------------------------------------|
G|--------------------------------------------------------------|
D|---2-xxxx------xxxx-2222-7-5-3-5---2-xxxx------xxxx-2222-33---|
A|---2-xxxx------xxxx-2222-7-5-3-5---2-xxxx------xxxx-2222-33---|
D|---2-xxxx-xxxx-xxxx-2222-7-5-3-5---2-xxxx-xxxx-xxxx-2222-33---|

E|---------------------------------------|
B|---------------------------------------|
G|---------------------------------------|
D|---2-xxxx------xxxx-2222-7-5-3-5-2-3~~~|
A|---2-xxxx------xxxx-2222-7-5-3-5-2-3~~~|
D|---2-xxxx-xxxx-xxxx-2222-7-5-3-5-2-3~~~|


Chorus 0:32-0:51

E|--------------------------------------------|
B|--------------------------------------------|
G|--------------------------------------------|
D|---2-0-2-----------------2-0-2--5-x-7-3-5---|
A|---2-0-2---*Pickslide*---2-0-2--5-x-7-3-5---|
D|---2-0-2-----------------2-0-2--5-x-7-3-5---|

E|------------------------------------------|
B|------------------------------------------|
G|------------------------------------------|
D|---2-0-2-----------------2-0-2--6-x-1-1---|
A|---2-0-2---*Pickslide*---2-0-2--6-x-1-1---|
D|---2-0-2-----------------2-0-2--6-x-1-1---|

E|--------------------------------------------|
B|--------------------------------------------|
G|--------------------------------------------|
D|---2-0-2-----------------2-0-2--5-x-7-3-5---|
A|---2-0-2---*Pickslide*---2-0-2--5-x-7-3-5---|
D|---2-0-2-----------------2-0-2--5-x-7-3-5---|

E|----------------------------------------|
B|----------------------------------------|
G|----------------------------------------|
D|---2-0-2-----------------2-0-2--5-x-7~~~|
A|---2-0-2---*Pickslide*---2-0-2--5-x-7~~~|
D|---2-0-2-----------------2-0-2--5-x-7~~~|


Collision 0:51-1:01

E|-------------------------|
B|-------4~~~~~~~~~~~~~~---|
G|-------7~~~~~~~~~~~~~~---|
D|---0~~~~~~~~~~~~~~~~~~---|
A|---0~~~~~~~*Pickslide*---|
D|---0~~~~~~~~~~~~~~~~~~---|


Solo 1:01-1:11

E|---------------------------------------|
B|---------------------------------------|
G|---------------------------5h7p5-------|
D|---0-3h5-0-3h6-0-3h5-3/5p0-------6p5---|
A|---------------------------------------|
D|---------------------------------------| x3

E|--------------------------------------|
B|--------------------------------------|
G|--------------------------------------|
D|---0-3h5-0-5h6-0-6h8-0-8h10-0-10h12---|
A|--------------------------------------|
D|--------------------------------------|


Bridge 1:11-1:22

E|-------------------------------------------------------|
B|-------------------------------------------------------|
G|---7-7---7-7-7---7-7---7-7-7---5-5---5-5-5---8-8---8~~~|
D|---x-x---x-x-x---x-x---x-x-x---x-x---x-x-x---x-x---x~~~|
A|---5-5---5-5-5---5-5---5-5-5---3-3---3-3-3--/6-6---6~~~|
D|-------------------------------------------------------| x2


Breakdown 1:22-1:31

E|---------|
B|---------|
G|---7b^~~~|
D|---------|
A|---------|
D|---------| 

E|------------------------|
B|------------------------|
G|---7p0-5p0--------------|
D|----------5p0-5p0-6p5---|
A|------------------------|
D|------------------------| x2


Outro 1:31-1:36

E|------------|
B|------------|
G|---777------|
D|---777--5---|
A|---555--5---|
D|--------5---| x2
Tap to rate this tab
# A B C D E F G H I J K L M N O P Q R S T U V W X Y Z