Song name
# A B C D E F G H I J K L M N O P Q R S T U V W X Y Z

La Dispute - Hudsonville Mi 1965 tab

  Verse 1                          Bridge
E|-3------------------------------|-------------------------|
B|-3------------------------------|-------------------------|
G|-0--(play this chord a lot)-----|-----7---10--8-----------|
D|-0------------------------------|-5---7---10--8-----------|
A|-1------------------------------|-5---5---8---6-----------|
E|--------------------------------|-3-----------------------|

  Verse 2             Chorus 1 (so you went underground)
E|-3-------0---------|---------------------------------------|
B|-3-------3---------|---------------------------------------|
G|-0-------2---------|-----7---5---7-------7---5---7---------|
D|-0-------3---------|-5---7---5---7---5---7---5---7---------|
A|-1-------0---------|-5---5---3---5---5---5---3---5---------|
E|-------------------|-3---------------3---------------------|

Verse 3 = same chords as Verse 2

  Chorus 2 (so you went down)
E|-----------------------------------|-----------------------|
B|-3---------------------------------|-----------------------|
G|-0--3-3--5-5--7-7--5-5--10-10-5-5--|-----0-2---------------|
D|-0--3-3--5-5--7-7--3-3--x--x--5-5--|-0-3-------------------|
A|-1--1-1--3-3--5-5--3-3--8--8--3-3--|-----------------------|
E|-----------------------------------|-----------------------|

Verse 4 = same chords as Verse 2

  Chorus 3 (I couldn't get through)
E|----------------------------------------------------------|
B|----------------------------------------------------------|
G|-2-02-5-2---------7---------------------------------------|
D|----------5---8-7-7---8---5---8-7-------------------------|
A|----------5---8-7-5---8---5---8-7-------------------------|
E|----------3---6-5-----6---3---6-5-------------------------|

Outro = same chords as Verse 2
Tap to rate this tab
 
# A B C D E F G H I J K L M N O P Q R S T U V W X Y Z