Song name
# A B C D E F G H I J K L M N O P Q R S T U V W X Y Z

La Femme - Sur La Planche tab

-------------------------------------------------------------------------------
                             SUR LA PLANCHE - La Femme
-------------------------------------------------------------------------------
Tabbed by: Clark Gray

Tuning: EADGBE

Main Riff
Easiest to barre across 7th Fret

e|---------------------------------------------------------------------------|
B|------------------7-7----7-------------------------------------------------|
G|-----8-9-8-9-------- 7-7--10--(10-9-8-7) optional--------------------------|
D|---7---------10------------------------------------------------------------|
A|---------------------------------------------------------------------------|
E|---------------------------------------------------------------------------|

Depending on version of the song there's a lick and an intro into the above riff

e|-------------8p5-ring------------------------------------------------------|
B|------7h8------------------------------------------------------------------|
G|-------------------------10b--10-9-8-7-------------------------------------|
D|---------------------------------------------------------------------------|
A|---------------------------------------------------------------------------|
E|---------------------------------------------------------------------------|

Bass/low part. First 12 notes can be played as power chords if needed.

e|---------------------------------------------------------------------------|
B|---------------------------------------------------------------------------|
G|---------------------------------------------------------------------------|
D|---------------------------------------------------------------------------|
A|--------------33---33---55---55-------8---7---6---5------------------------|
E|-----55--55-------------------------5---5---5---5--------------------------|

Clapping part - chords with picking style

e|---8-------------------------------------8----8----8----8-----8------------|
B|---10--(strum hard a few times)------------10--------10--------------------|
G|---9-----------------------------------9---------9----------9--------------|
D|---------------------------------------------------------------------------|
A|---------------------------------------------------------------------------|
E|---------------------------------------------------------------------------|

e|------8----8-------8---8-----8---------------------------------------------|
B|--------10----------10-----------------------------------------------------|
G|---11-----------10---------10----------------------------------------------| x Many times
D|---------------------------------------------------------------------------|
A|---------------------------------------------------------------------------|
E|---------------------------------------------------------------------------|

Fast picking bridge - surf/wipeout style

e|---------------------------------------------------------------------------|
B|---------------------------------------------------------------------------|
G|---------------------------------------------------------------------------|
D|---------------------------------------------------------------------------| x as many times as needed
A|-----888777666555-----3-000-3--000-----99-55---99-55--88-55-88-55 88776655-|
E|---5-----------------------------------------------------------------------|

After Main Riff part

e|-----------------------------------------------------------------------------|
B|-----------------------------------------------------------------------------|
G|-----------------------------------------------------------------------------|
D|-7(x8)-8(x8)-9(x8)-10(x8)-11(x8)-12(x8)-13(x4)-14(x4)-15(x2)-16(x2)-17(x2) 18|
A|-----------------------------------------------------------------------------|
E|-----------------------------------------------------------------------------|

Ends on Whammy Bar dip + (Bonus Song - Telegraphé - Easy repeated Guitar part)

e|---5-----------------------------  ---0---------------0----------------------|
B|---5-----------------------------  ---1-----4--5------0----------------------|
G|---5-----------------------------  ---0---------------0----------------------| - strum upwards / whammy dip each chord / repeat!
D|---------------------------------  ---2---------------2----------------------|
A|---------------------------------  ---3---------------2----------------------|
E|---------------------------------  ---0---------------0----------------------|
- strum upwards / whammy dip each chord / repeat!

Those are all the parts I know of - Feel free to comment more if you think a little lick is missing.

ANTITAXI!


************************************

| /   slide up
| \   slide down
| h   hammer-on
| p   pull-off
| ~   vibrato
| +   harmonic
| x   Mute note
| b   Bend
| pb  Pre-bend
| br  Bend release
| pbr Pre-bend release
| brb Bend release bend

************************************
Tap to rate this tab
 
# A B C D E F G H I J K L M N O P Q R S T U V W X Y Z