Song name
# A B C D E F G H I J K L M N O P Q R S T U V W X Y Z

La Guns - The Ballad Of Jayne tab

This is correct! I use to play this with my band, Scary Mary, back in the 80's (yes I'm 
in my mid 40's and stuck in the 80's hair band mentality). Anyway it's tuned down 1/2 
step. Enjoy!

e|-------14-15-14--------------14-17-15-14-----------14-15-15-14h15p14------|
B|----15----------15--------15-------------15-----15------------------15-15-|
G|-14----------------14--14--------------------14---------------------------|
D|--------------------------------------------------------------------------|
A|--------------------------------------------------------------------------|
E|--------------------------------------------------------------------------|

e|--------------------------------------------------------------------------|
B|------------------------15------------------------------------------------|
G|----12h14-14b(15)---14b-----b14-12h14p12--------12-12--------14--------12-|
D|-14----------------------------------------12h14--------14h16-----12h14---|
A|--------------------------------------------------------------------------|
E|--------------------------------------------------------------------------|

e|---------------------15-14-15-17-15-14-15----8-7-8-10-8-7h8p7--------------|
B|--------------------------------------------------------------10-8-7-8-----|
G|-14b(15)14-12~-------------------------------------------------------------|
D|---------------------------------------------------------------------------|
A|---------------------------------------------------------------------------|
E|---------------------------------------------------------------------------|

e|--------------------------------------------------------------------------|
B|----5-7---------5---------------------------------------------------------|
G|----5-7-5h7p5---5---------------------------------------------------------|
D|-7------------7---7--5h7p5---5-5-----5h7p5h7p5~-----5h7p5h7p5~------------|
A|---------------------------7-------7--------------7-----------------------|
E|--------------------------------------------------------------------------|

e|--------------------------------------------------------------------------|
B|----5-7---------5---------------------------------------------------------|
G|----5-7-5h7p5---5----------------------7b(8)r7~---------------------------|
D|-7------------7---7--5h7p5---5-7-5----------------7b(8)r7~----------------|
A|---------------------------7-------7-5------------------------------------|
E|--------------------------------------------------------------------------|

Thanks and keep rockin'......
Tap to rate this tab
# A B C D E F G H I J K L M N O P Q R S T U V W X Y Z