Song name
# A B C D E F G H I J K L M N O P Q R S T U V W X Y Z

La Guns - Kevorkian tab

kevorkian tab by la guns


this song is in drop D, 1/2 a step down

beginning


E---------------------------------------|
B---------------------------------------|
G---------------------------------------|
D------2-----3-----0--------------------| x4
A----2-----3-----0----------------------|
D--2-----3-----0------------------------|


E-----------------------------------|
B-----------------------------------|
G-----------------------------------|
D------2-------2-------3-------0----| x4
A----2---2---2---2---3---3---0------|
D--2-------2-------3-------0--------|

back to beginning


chorus

E---------------------------------------|
B---------------------------------------|
G---------------------------------------|
D--2----3----0--------------------------| x4
A--2----3----0--------------------------|
D--2----3----0--------------------------|

beginning


the song stays the same all the way through

if theres any questions, e-mail me at chris_m622@hotmail.com
Tap to rate this tab
 
# A B C D E F G H I J K L M N O P Q R S T U V W X Y Z