Song name
# A B C D E F G H I J K L M N O P Q R S T U V W X Y Z

La Gusana Ciega - Asimetrica tab

Meeeoow!

INTRO:
e|----------------------------------|
B|----------------------------------|
G|--------11-11-------11---11---11--|
D|--------9--9--------9----9----9---|
A|--------11-11-------11---11---11--|
E|--0-0-0-------0-0-0----0----0-----|

e|-----------------------------|
B|-----------------------------|
G|--------9-9-------9---9---9--|
D|--------7-7-------7---7---7--|
A|--------9-9-------9---9---9--|
E|--0-0-0-----0-0-0---0---0----|

e|-----------------------------|
B|-----------------------------|
G|--------4-4-------4---4---4--|
D|--------2-2-------2---2---2--|
A|--------4-4-------4---4---4--|
E|--0-0-0-----0-0-0---0---0----|

e|-----------------------------|
B|-----------------------------|
G|--------2-2-------2---2---2--|
D|--------2-2-------2---2---2--|
A|--------0-0-------0---0---0--|
E|--0-0-0-----0-0-0---0---0----|

VERSE:
Debes saber...
e|----------------------------------|
B|----------------------------------|
G|--------11-11-------11---11---11--|\
D|--------9--9--------9----9----9---| \
A|--------11-11-------11---11---11--|  \
E|--0-0-0-------0-0-0----0----0-----|   \ (x2)
                                        /
e|-----------------------------|       /
B|-----------------------------|      /
G|--------9-9-------9---9---9--|     /
D|--------7-7-------7---7---7--|
A|--------9-9-------9---9---9--|
E|--0-0-0-----0-0-0---0---0----|

El amanecer...
e|----------------------------------|
B|----------------------------------|
G|--------11-11-------11---11---11--|
D|--------9--9--------9----9----9---|
A|--------11-11-------11---11---11--|
E|--0-0-0-------0-0-0----0----0-----|

Porque despiertas...
e|--------------|
B|--------------|
G|-9-9-9-9--9-9-|
D|-7-7-7-7--7-7-|
A|-9-9-9-9--9-9-|
E|-0-0-0-0--0-0-|

e|----------------------------------|
B|----------------------------------|
G|--------11-11-------11---11---11--|
D|--------9--9--------9----9----9---|
A|--------11-11-------11---11---11--|
E|--0-0-0-------0-0-0----0----0-----|

e|-----------------------------|
B|-----------------------------|
G|--------9-9-------9---9---9--|
D|--------7-7-------7---7---7--|
A|--------9-9-------9---9---9--|
E|--0-0-0-----0-0-0---0---0----|

Y no se...
e|-----------------------------|
B|-----------------------------|
G|--------4-4-------4---4---4--|
D|--------2-2-------2---2---2--|
A|--------4-4-------4---4---4--|
E|--0-0-0-----0-0-0---0---0----|

e|-----------------------------|
B|-----------------------------|
G|--------2-2-------2---2---2--|
D|--------2-2-------2---2---2--|
A|--------0-0-------0---0---0--|
E|--0-0-0-----0-0-0---0---0----|

VERSE:
e|----------------------------------|
B|----------------------------------|
G|--------11-11-------11---11---11--|\
D|--------9--9--------9----9----9---| \
A|--------11-11-------11---11---11--|  \
E|--0-0-0-------0-0-0----0----0-----|   \ (x4)
                                        /
e|-----------------------------|       /
B|-----------------------------|      /
G|--------9-9-------9---9---9--|     /
D|--------7-7-------7---7---7--|
A|--------9-9-------9---9---9--|
E|--0-0-0-----0-0-0---0---0----|

Y no se...
e|-----------------------------|
B|-----------------------------|
G|--------4-4-------4---4---4--|
D|--------2-2-------2---2---2--|
A|--------4-4-------4---4---4--|
E|--0-0-0-----0-0-0---0---0----|

e|-----------------------------|
B|-----------------------------|
G|--------2-2-------2---2---2--|
D|--------2-2-------2---2---2--|
A|--------0-0-------0---0---0--|
E|--0-0-0-----0-0-0---0---0----|

CHORUS: (x4)
Debe ser...
e|-------------------------------------------------------|
B|-------------------------------------------------------|
G|--------1-1-------1---1---1--------2-2-------2---2---2-|
D|--------2-2-------2---2---2--------2-2-------2---2---2-|
A|--------2-2-------2---2---2--------0-0-------0---0---0-|
E|--0-0-0-----0-0-0---0---0----0-0-0-----0-0-0---0---0---|

SOLO: (x2)
e|------------------------|
B|------------------------|
G|------------------------|
D|----------9-------------|
A|---9-11-9---11-9-11--7~-|
E|-7----------------------|

VERSE:
Debes saber...
e|----------------------------------|
B|----------------------------------|
G|--------11-11-------11---11---11--|\
D|--------9--9--------9----9----9---| \
A|--------11-11-------11---11---11--|  \
E|--0-0-0-------0-0-0----0----0-----|   \ (x4)
                                        /
e|-----------------------------|       /
B|-----------------------------|      /
G|--------9-9-------9---9---9--|     /
D|--------7-7-------7---7---7--|
A|--------9-9-------9---9---9--|
E|--0-0-0-----0-0-0---0---0----|

Y no se...
e|-----------------------------|
B|-----------------------------|
G|--------4-4-------4---4---4--|
D|--------2-2-------2---2---2--|
A|--------4-4-------4---4---4--|
E|--0-0-0-----0-0-0---0---0----|

e|-----------------------------|
B|-----------------------------|
G|--------2-2-------2---2---2--|
D|--------2-2-------2---2---2--|
A|--------0-0-------0---0---0--|
E|--0-0-0-----0-0-0---0---0----|

CHORUS: (x4)
Debe ser...
e|-------------------------------------------------------|
B|-------------------------------------------------------|
G|--------1-1-------1---1---1--------2-2-------2---2---2-|
D|--------2-2-------2---2---2--------2-2-------2---2---2-|
A|--------2-2-------2---2---2--------0-0-------0---0---0-|
E|--0-0-0-----0-0-0---0---0----0-0-0-----0-0-0---0---0---|

En que momento...
e|----------------------------|
B|----------------------------| \
G|-8-8-8-8-8-8--9-11--9-9-9-9-|  \ (x3)
D|-9-9-9-9-9-9--7-9---7-7-7-7-|  /
A|-9-9-9-9-9-9----------------| /
E|-7-7-7-7-7-7----------------|

Y no se...
e|-----------------------------|
B|-----------------------------|
G|--------4-4-------4---4---4--|
D|--------2-2-------2---2---2--|
A|--------4-4-------4---4---4--|
E|--0-0-0-----0-0-0---0---0----|

e|-----------------------------|
B|-----------------------------|
G|--------2-2-------2---2---2--|
D|--------2-2-------2---2---2--|
A|--------0-0-------0---0---0--|
E|--0-0-0-----0-0-0---0---0----|

CHORUS (x2)

OUTRO:
e|----------------------------------|
B|----------------------------------|
G|--------11-11-------11---11---11--|
D|--------9--9--------9----9----9---|
A|--------11-11-------11---11---11--|
E|--0-0-0-------0-0-0----0----0-----|

e|------------------------------------------|
B|------------------------------------------|
G|-----------11-11----------11----11----11--|
D|-----------9--9-----------9-----9-----9---|
A|-----------11-11----------11----11----11--|
E|--10-10-10-------10-10-10----10----10-----|

e|--------------------------------------|
B|--------------------------------------|
G|--------11-11-------11---11---11--11~-|
D|--------9--9--------9----9----9---9~--|
A|--------11-11-------11---11---11--11~-|
E|--9-9-9-------9-9-9----9----9-----0~--|
Tap to rate this tab
# A B C D E F G H I J K L M N O P Q R S T U V W X Y Z