Song name
# A B C D E F G H I J K L M N O P Q R S T U V W X Y Z

La Ley - El Duelo Acoustic tab

Help us improve GuitareTab! Take a short survey!
 Aqu va el intro :

         Em                   CM           Em
E-0----------------------------------------------------|
B-0----------------------------------------------------|
G-0---0-----------------------------0--2---------------|
D-2-----4-2--------------------0--2-------2/4----------|
A-3---------0/2-0--2--3-2---3-------------------------|
E-3----------------------------------------------------|


E-0---0----0----0----0----0----0--------|
B---0---0---1----0----1----0----1--------|
G----0------0----0----0----0----0--------|
D-----------2----2----2----2----20-2-4-|
A-----------3----2----3----2----3--------|
E-----------3----0----3----0----3--------|


E--------------------------------------------|
B----------3/5-3------3-3/5-3--------------|
G-0-2-4---------4-5-----------4-5--------|
D--------------------------------------------|
A--------------------------------------------|
E--------------------------------------------|


  Em   Con una lagrima      de fe sobre tu piel
E---------------------------------------------------|
B-------3----3----3----------3----3----3------------|
G------0-0----0----0--------0-0----0----0-----------|
D-----2---2----2----2------2---2----2----2----------|
A---------------------------------------------------|
E---0--------------------0--------------------------|


  CM   olvide la grieta     que dejo tu amor
E---------------------------------2---3---2-----0---|
B-------3---3---3----------3---3-3---5---3-3------|
G------0-0---0---0--------0-0----------------4------|
D-----2---2---2---2------2---2----------------------|
A---3------------------3----------------------------|
E---------------------------------------------------|
  Em  pero ese instinto    taurino de tu ser
E---------------------------------------------------|
B-------3----3----3-----------3----3----3-----------|
G------0-0----0----0---------0-0-------0-0---0------|
D-----2---2----2----2-------2---2-----4----4--------|
A---------------------------------------------------|
E---0---------------------0-------------------------|


 CM  me obligo azotarte    huuuuu     tiernamente
E-------0----0----0--------0----------0-------------|
B------1-1----1----1-------1----------1-------------|
G-----0---0----0----0------0----------0-------------|
D--------------------------2----------2-------------|
A---3----------------------3----------3-------------|
E--------------------------3----------3-------------|

 G     D           Am      C
Sin dolor no te haces feliz    (ver fig.1.4)
 G     D           Am       C
Sin dolor no te haces feliz    (ver fig.1.6)
         G Bm Am C G bm Am  C
Sin amooooooooor               (ver fig.1.5)
           Em
No sufres mas                  (ver fig.2.0)


    Figura 1.4
E--------------------------------------------------------|
B-------------1-03/5-3-1-0-13/5-3-1-0-1-0-------------|
G-----------0---------------------------------2----------|
D-------0/2--------------------------------------2/3-2--|
A-23---------------------------------------------------|
E--------------------------------------------------------|

   Figura 1.6
E--------------------------------------|
B---3/5-3-1-0-1-0-----------------|
G------------------------2-0----------|
D------------------------------0/2-0-|
A--------------------------------------|
E--------------------------------------|

   Figura 1.5
E--------------------------------------|
B--------------10---------------------|
G------------0-------------------------|
D-------0/2----------0-4-2-0-2-0-------|
A---2-3---------------------------32-|
E--------------------------------------|

   Mitad de la cancin    figura 2.0
E--------------------[12]------------------------------|
B-----------------------[12]---------------------------|
G------------------------------------------------------|
D--------12-9----------------------12-9--------12-9-|
A---9-10---------9-10---------9-10---------9-10--------|
E------------------------------------------------------|


   El arpegio y acordes en donde canta Beto Cuevas, se
Repite en donde canta Ely  Guerra.


Toda esa noche, provocaste ver en mi     (ver fig.1.1)
Lo que a nadie muestro, en la intimidad  (ver fig.1.2)
Pero esa forma de mirada que haba en ti (ver fig.1.2.1)
Me obligo a matarte   huuuuuuu  lentamente  (010233)


   Figura 1.1            figura 1.2
E-15-14-12---      E-----------------------------------|
B---------------      B-----------------------------------|
G---------------      G------------0----------------------|
D---------------      D---0-2---4------2/4---2-----------|
A---------------      A---------------------------0/2-----|
E---------------      E-----------------------------------|

    Figura  1.2.1
E-----------------------------------------------------|
B---------------------------3/4---3-------------------|
G---0---2---2---2/4-2-0--------------4-5-4-2-0-|
D-----------------------------------------------------|
A-----------------------------------------------------|
E-----------------------------------------------------|


Sin dolor no te haces feliz       (ver fig.1.5)
Sin dolor no te haces feliz
Sin amoooooooor                   (ver fig.1.5)
Tiernamente                       (010233)

Sin dolor no te haces feliz       (ver fig.1.3)
Sin dolor no te haces feliz
Sin amoooooooor                   (ver fig.1.3.1)


   Figura  1.3
E---------------------------------------|
B-------0-1-0---------------------------|
G-0-2----------2-0---------------------|
D---------------------0-2-2---0---------|
A---------------------------------------|
E---------------------------------------|
   Figura 1.3.1
E--------------------------------|
B---3/5-3---1---0------1---0-----|
G-------------------2------------|
D--------------------------------|
A--------------------------------|
E--------------------------------|


Aqu empieza lo rpido, por lo que el ritmo en los
Acordes tambin.

E------------------------------------------0---0---0---0---|
B---55555555---78888---101212121081088-----1---1---1---1---|
G------------------------------------------0---0---0---0---|
D------------------------------------------2---2---2---2---|
A------------------------------------------3---3---3---3---|
E------------------------------------------3---3---3---3---|


Sin dolor no te haces feliz         (ver fig.1.3)
Sin dolor no te haces feliz         (ver fig.1.3)
Sin amooooooooor                    (ver fig.1.3)
Tiernamente


Sin dolor no te haces feliz         (ver fig.1.3)
Sin dolor no te haces feliz         (ver fig.1.3)
Sin amoooooooooor                   (ver fig.1.3)
No sufres mas


E----------5----3----2--------------|
B------3----3----3----3-------------|
G---0--0----0----0----0----0-------|
D---2----4--------------------------|
A---2-------------------------------|
E---0-------------------------------|
Related for El Duelo Acoustic tab