Song name
# A B C D E F G H I J K L M N O P Q R S T U V W X Y Z

La Ley - Dia Cero Acoustic tab

Esta y todas las canciones del Mtv Unplugged deben ser tocadas 
por 2 o mas guitarras, una que haga el acompañamiento y la otra los punteos

Bbm(688666)
EbM(668886)
Dm(557765)

  0:12/1:31
E|----------------------------------------------------------------|
B|-11-13-10~~--11x11-10x10-8x8-6x--11-13-10~~--11x11-10x10-8x8-6x-|
G|----------------------------------------------------------------|
D|----------------------------------------------------------------|
A|----------------------------------------------------------------|
E|----------------------------------------------------------------|

        0:39       |         0:45       |   0:59  |   1:02  |    1:05     |
E|---------1-------|--------------------|---------|---------|-------------|
B|-----------1-----|-11x11-10x10-8x8-6x-|-3---3-1-|---------|-1---0-------|
G|---0p2p3-----3-2-|--------------------|-3p5-3-2-|---------|---2---2-----|
D|-3---------------|--------------------|---------|-3p5-3---|---------3---|
A|-----------------|--------------------|---------|-------3-|-----------3-|
E|-----------------|--------------------|---------|---------|-------------|

 1:09/2:14 (coro)
E|----5--5--5-------6--6--6-------5--5--5-------5--5--5---|
B|--6--6--6--6----8--8--8--8----6--6--6--6----5--5--5--5--|
G|-7-7--7--7--7--8-8--8--8--8--7-7--7--7--7--7-7--7--7--7-|:x2
D|--------------------------------------------------------|
A|--------------------------------------------------------|
E|--------------------------------------------------------|

     1:44   |           1:48           |   1:53  |         1:55       |
E|----------|-------------1------------|---------|--------------------|
B|----------|-----------1---1p3--------|---------|-11x11-10x10-8x8-6x-|
G|-7p9-7p0--|-----0-3-4---------3-0-2--|---------|--------------------|
D|----------|-3-3----------------------|-3p5-3---|--------------------|
A|----------|--------------------------|-------3-|--------------------|
E|----------|--------------------------|---------|--------------------|

  3:52 (Final) 
E|-6-8-5~~----6-6---6---5-5---5---3-3---3---1-1---1-|
B|--------------------------------------------------|
G|----------7-----7---5-----5---3-----3---2-----2---|
D|--------------------------------------------------|
A|--------------------------------------------------|
E|--------------------------------------------------|

E|-6-8-5~~----5-8-6-5---------6-6---6---5-5---5---3-3---3---1-1---1---|
B|----------8---------8--6------------------------------------------3-|
G|--------------------------7-----7---5-----5---3-----3---2-----2-----|
D|--------------------------------------------------------------------|
A|--------------------------------------------------------------------|
E|--------------------------------------------------------------------|

E|-6-8-5~~----6-6---6---5-5---5---3-3---3---1-1---1------|
B|---------------------------------------------------3~~-|
G|----------7-----7---5-----5---3-----3---2-----2--------|
D|-------------------------------------------------------|
A|-------------------------------------------------------|
E|-------------------------------------------------------|



Gm
veo lo que creo ver y no veo mas
Gm
de lo que pueda contar no recuerdo nada
F                           Gm
no hay necesidad,  de cantarlo mas
Gm
creo creerte no temer que esto es verdad
Gm
la vida se nublo en su totalidad
F
estoy perdido
Am
y no se mirar lo que deje allá atras
Bbm      EbM       
en ese camino largo
Dm
que un dia ame yo caminar
Bbm         EbM 
nacio esta ciega herida
Dm
que borro hoy dia mi ayer
Gm
personas extrañas hablan de quien fui
Gm
pretenden darme calor sin que sepa nada 
F
no hay necesidad,
Gm
ni siquiera de llorar, por estar asi
Gm
mi amnesia me dice,
               F
absolutamente nada mas
Am
que esa sensacion de ansiedad
Bbm       EbM
en ese camino largo 
Dm
que un dia ame yo caminar
Bbm            EbM
que envio una biografia
Dm
y borro cenizas del ayer
Bbm        EbM
y tratan de enseñarme 
Dm
quien me quiso y a quien debo amar
Bbm            EbM
comienza el dia cero
Dm
y mañana su continuidad
Bbm            EbM
shanadadadau shanadadadau
D
y sobre cenizas del ayer
Bbm           EbM
shanadadadau shanadadadau
Dm
y suple cenizas de mi ayer
Bbm         EbM
y tartan de enseñarme
Dm
shanadadadau shanadadadau
Bbm           EbM
shanadadadau shanadadadau
Dm
quien me quiso y a quien debo amar
Bbm           EbM
shanadadadau shanadadadau
Dm
shanadadadau shanadadadau
Bbm          EbM
shanadadadau shanadadadau
Dm
quien me quiso y a quien debo amar
Tap to rate this tab
 
# A B C D E F G H I J K L M N O P Q R S T U V W X Y Z