Song name
# A B C D E F G H I J K L M N O P Q R S T U V W X Y Z

La Ley - La Luna tab

Esta es la tab para la cancion de la luna de la ley
El rasgueo de las 2 ultimas cuerdas se toca para arriba

R
--------------5----------------5---------|
--------------5----------------5---------|
-----------------------------------------|
------4-----------------4----------------|
----5----5-----------5----5--------------|
-----------------------------------------|

L
----------------5--------------5---------|
----------------5--------------5---------|
------------4---------------4------------|
--------5----------------5---------------|
-----------------------------------------|
----0-----------------0------------------|


R  L  R  L

R
  La luna es incompleta
L
  Si el sol no esta ahi
R
  La luna no se queja
L
  Siempre que el sol atienda
     R
  Su amanecer
    L
  Y su atardecer
        R
  Su amanecer
    L
R
   La luna vive sola
L
  Y tiene que entender
R
  Que el sol que la ilumina
L                               R
  Tambien hace brillar a otra luna
   L
  Que despierta con el
R
Al amanecer
L
Y al atardecer

--5--------------|
---5-------------|
----0------------|
-----4-----------|
------5----------|
-------0---------|

                                                                   L&R
Tap to rate this tab
# A B C D E F G H I J K L M N O P Q R S T U V W X Y Z