Guitaretab - guitar tabs
Song name
# A B C D E F G H I J K L M N O P Q R S T U V W X Y Z

La Ley - El Duelo tab

este es un buen tab, cualquier duda, correcci?n o comentario mandenlo a san_roberth@hotmail.com(venezuela), no es tan dificil como parece. 

Dice as?:
E-0----------------------------------------------------------
B--0---------------------------------------------------------
G---0-------------------------------------0/2----------------
D----2----4-5-4-2--------------------0--2-------2/4----------
A-----2-----------0/2-0--2--3-2---3-------------------------
E------0-----------------------------------------------------

  
     C      Em        C        Em       C



E-----------------------------------------------------
B-------------------3/5-3--0-1---3-3/5-3--0-1-------
G--------0-2-4------------------------------------
D-0-2-4----------------------------------------------
A-----------------------------------------------------
E-----------------------------------------------------

Em                                    
como una lagrima de fe sobre tu piel
C
olvide la grieta que dejo tu amor
Em                                       
pero ese instinto taurino de tu ser
C 
me obligo a azotarte  huuuuu

tiernamente............


 G     D           Am      C
Sin dolor no te haces feliz  
E--------------------------------------------------------
B-------------1-03/5-3-1-0-13/5-3-1-0-1-0-------------
G-----------0---------------------------------2----------
D-------0/2--------------------------------------2/3-2--
A-23---------------------------------------------------
E--------------------------------------------------------
  
 G     D           Am       C
Sin dolor no te haces feliz   
E--------------------------------------
B---3/5-3-1-0-1-0-----------------
G------------------------2-0----------
D------------------------------0/2-0-
A--------------------------------------
E--------------------------------------

G D Am C G D Am  C
Sin amooooooooor    
E--------------------------------------
B--------------10---------------------
G------------0-------------------------
D-------0/2----------0-4-2-0-2-0-------
A---2-3---------------------------32-
E--------------------------------------
           
           C
No sufras mas ...                 
      
E---------------------12------------------------------
B------------------------12---------------------------
G-----------------------------------------------------
D--------12/9----------------------12/9--------12/9---
A---9-10---------9-10---------9-10---------9-10-------
E-----------------------------------------------------

Aqui comienza a cantar Ely Guerra
   
Em                                 
Toda esa noche, provocaste ver en mi 

E-15-14-12--- 
B---------------   
C
Lo que a nadie muestro, en la intimidad  
E-----------------------------------
B-----------------------------------
G------------0----------------------
D---0-2---4------2/4---2-----------
A---------------------------0/2-----
E-----------------------------------
Em
Pero esa forma de mirada que hab?a en ti
E-----------------------------------------------------
B---------------------------3/4---3-------------------
G---0---2---2---2/4-2-0--------------4-5-4-2-0-
D-----------------------------------------------------
A-----------------------------------------------------
E-----------------------------------------------------
                                      C
Me obligo a matarte   huuuuuuu  lentamente  

   
   

G      D           Am        C
Sin dolor no te haces feliz 
E---------------------------------------
B-------0-1-0---------------------------
G-0-2----------2-0---------------------
D---------------------0/2-0-------------
A---------------------------------------
E---------------------------------------
G      D           Am        C
Sin dolor no te haces feliz 
G      D           Am        C    G      D           Am        C
Sin amoooooooor
E---------------------------------------
B-------0-1-0---------------------------
G-0-2----------2-0---------------------
D---------------------0/2-0-------------
A---------------------------------------
E---------------------------------------                   

Tiernamente                       

G      D           Am        C
sin dolor no te haces feliz
E---------------------------------------
B-------0-1-0---------------------------
G-0-2----------2-0---------------------
D---------------------0/2-0-------------
A---------------------------------------
E---------------------------------------
G      D           Am        C
sin dolor no te haces feliz
G      D           Am        C    G      D           Am        C
sin amooooooooor
E--------------------------------
B---3/5-3---1---0------1---0-----
G-------------------2------------
D--------------------------------
A--------------------------------
E--------------------------------
  

  


Aqu? se hace una pausa y luego comienza la bater?a.
Todo lo que sigue es vastante rapido incluyendo los 
acordes  Em   y   C  que se acent?an .
  
       (min:3.57 aprox.)

         Em          C

E----------------------------------------------------------
B--3/55555555--78888--101212--7787--7787--7787--7787/5/3-3-
G----------------------------------------------------------
D----------------------------------------------------------
A----------------------------------------------------------
E----------------------------------------------------------
G      D           Am        C
Sin dolor no te haces feliz 
E-------0------------------------------
B----------3--0-2-0-2-0-2-0-2-0--------
G--2-0-----------------------------2-0-
D--------------------------------------
A--------------------------------------
E--------------------------------------
G      D           Am        C
Sin dolor no te haces feliz
E-----0--------------------------------
B--------3--0-2-0-2-0-2-0-2-0----------
G----------------------------------2-0-
D--------------------------------------
A--------------------------------------
E--------------------------------------
G      D           Am        C    G      D           Am        C
Sin amooooooooor
E-------0-------------------------------
B----------3--0-2-0-2-0-2-0-2-0---------
G-----------------------------------2-0-
D---------------------------------------
A---------------------------------------
E---------------------------------------
                            
Tiernamente 
E-------------------------------
B--0-1-1--1-0-------------------
G-------------2-0---------------
D-------------------------------
A-------------------------------
E-------------------------------

G      D           Am        C
Sin dolor no te haces feliz 
E-------0------------------------------
B----------3--0-2-0-2-0-2-0-2-0--------
G--2-0-----------------------------2-0-
D--------------------------------------
A--------------------------------------
E--------------------------------------
G      D           Am        C
Sin dolor no te haces feliz
E-----0--------------------------------
B--------3--0-2-0-2-0-2-0-2-0----------
G----------------------------------2-0-
D--------------------------------------
A--------------------------------------
E--------------------------------------
G      D           Am        C    G      D           Am        C
Sin amooooooooor
E-------0-------------------------------
B----------3--0-2-0-2-0-2-0-2-0---------
G-----------------------------------2-0-
D---------------------------------------
A---------------------------------------
E---------------------------------------
              C
No sufres mas...
E-----------------------------------
B------3----3----3----3----3--------
G------0----0----0----0------------
D--------4----4----4----4-----------
A-----------------------------------
E-----------------------------------

[ Tab from: http://www.guitaretab.com/l/la-ley/24073.html ]
Related for El Duelo tab
El Duelo chords by La Ley