Song name
# A B C D E F G H I J K L M N O P Q R S T U V W X Y Z

La Ley - El Duelo tab

El duelo
La ley
Studio Version

NOTA: en la tablatura aparecerá el verso con el acorde correspondiente y debajo 
aparecerá el punteo que se debe hacer en el caso de no tocar los acordes


Intro: Em-C-Em-C


Verso:
Em
Con una lagrima de fe sobre tu piel
E---------------------------------------------|
B---------------------------------------------|
G—-----4-4--------4-4-------4-4------4-4------|
D---------------------------------------------|
A---5h7-------5h7-------5h7-------5h7---------|
E---------------------------------------------|

C
olvide la grieta que dejo tu amor
E---------------------------------------------|
B---------------------------------------------|
G—-----5-5--------5-5-------5-5------5-5------|
D---------------------------------------------|
A---5h7-------5h7-------5h7-------5h7---------|
E---------------------------------------------|

Em
pero ese instinto taurino de tu ser
E---------------------------------------------|
B---------------------------------------------|
G—-----4-4--------4-4-------4-4------4-4------|
D---------------------------------------------|
A---5h7-------5h7-------5h7-------5h7---------|
E---------------------------------------------|

C
me obligo a azotarte tiernamente
E---------------------------------------------|
B---------------------------------------------|
G—-----5-5--------5-5-------5-5------5-5------|
D---------------------------------------------|
A---5h7-------5h7-------5h7-------5h7---------|
E---------------------------------------------|


Coro:
G      D            C
  Sin dolor no te haces feliz
G      D            C
  sin dolor no te haces feliz
G      D        C       G       D      C
  sin amor...
Em              C
no sufres mas

Verso: (mismo punteo que en la primera estrofa)
Em
Toda esa noche provocaste ver en mi
C
lo que a nadie muestro en la intimidad
Em
pero ese tipo de mirada que hay en ti
C
me obligo a matarte lentamente

Coro x2

Solo: (Acompañado con las notas del coro)

E--3--5-5-5/7-7-7-7-7--7-5-5-3--|
B--x--x-x-x-x-x-x-x-x--x-x-x-x--|
G—-0--2-2-2/4-4-4-4-4--4-2-2-0--|      X2
D--x--x-x-x-x-x-x-x-x--x-x-x-x--|
A-------------------------------|
E-------------------------------|

E---3/5--3---|
B---3/5--3---|
G—-----------|
D------------|
A------------|
E------------|

E-----7-8-8-8/10--|
B-----x-x-x-x-x---|
G-----4-5-5-5-7---|
D-----x-x-x-x-x---|  x4
A-----------------|
E-----------------|


Em-C-Em


------------------o----------------------


Dudas a: laa.xiio@hotmail.com
Tap to rate this tab
# A B C D E F G H I J K L M N O P Q R S T U V W X Y Z