Song name
# A B C D E F G H I J K L M N O P Q R S T U V W X Y Z

La Musicalite - Dueno Y Esclavo tab

La musicalite-dueño y esclavo.
    Ha costado un poco unir los diferentes instrumentos de la intro, pero creo que 
ha quedado "bien".

(sección de cuerda)
1.1.---------------------------------------------------------------|
  2.---------------------------------------------------------------|
  3.---------------------------------------------------------------|
  4.---------------------------------------------------------------|
  5.---12-12-12-12-12-12-12-12-12-12-12-12-12-12-12-12-12-12-12-12-|
  6.---------------------------------------------------------------|

2.1.---------------------------------------------------------------------|
  2.---------------------------------------------------------------------|
  3.---------------------------------------------------------------------|
  4.---------------------------------------------------------------------|
  5.---7-7-7---7-7-7----------7-7-7------------7-----------5-7-----------|
  6.---5-5-5---5-5-5----------5-5-5------------5-----------3-5-----------|

3.1.--------------------------------------------------------------|
  2.--------------------------------------------------------------|
  3.--------------------------------------------------------------|
  4.--------------------------------------------------------------|
  5.-------------0-0-2-2-3-3-5-5----------------------------------|
  6.--------------------------------------------------------------|

4.1.------------------------------------------------------------------------|
  2.------------------------------------------------------------------------|
  3.------------------------------------------------------------------------|
  4.-----------------------------7-7-9-9-10-10--7-7-9-10---7-7-9-9-10-10----|
  5.------------------------------------------------------------------------|
  6.------------------------------------------------------------------------|

1.1.---------------------------------------------------------------|
  2.---------------------------------------------------------------|
  3.---------------------------------------------------------------|
  4.---------------------------------------------------------------|
  5.---12-12-12-12-12-12-12-12-12-12-12-12-12-12-12-12-12-12-12-12-|
  6.---------------------------------------------------------------|

2.1.---------------------------------------------------------------|
  2.---------------------------------------------------------------|
  3.---------------------------------------------------------------|
  4.---------------------------------------------------------------|
  5.---7---7-----------------------------------7-7-9-9-10-10-12-12-|
  6.---5---5-----------------------------------5-5-7-7--8--8-10-10-|

3.1.----------------------------------------5---------------------------|
  2.--------------------------------------5-----------------------------|
  3.----------------------------------4-5-------------------------------|
  4.--------------------------------7-----------------------------------|
  5.--------------------------------------------------------------------|
  6.--------------------------------------------------------------------|

4.1.------------------------------------------------------------------------|
  2.------------------------------------------------------------------------|
  3.------------------------------------------------------------------------|
  4.---------7-7-9-9-10-10----7-7-9-10------------7-7-9-9-10-10-------------|
  5.------------------------------------------------------------------------|
  6.------------------------------------------------------------------------|

1.1.--------------------------------------------------------------|
  2.--------------------------------------------------------------|
  3.--------------------------------------------------------------|
  4.--------------------------------------------------------------|
  5.-12-12-12-12-12-12-12-12-12-12-12-12-12-12-12-12-12-12-12-12--|
  6.--------------------------------------------------------------|

2.1.------------------------------------------------------------------------|
  2.------------------------------------------------------------------------|
  3.------------------------------------------------------------------------|
  4.------------------------------------------------------------------------|
  5.-3-3-3-3-3-3-3-3-7-7-7-7-7-7-7-7-3-3-3-3-3-3-3-7-7-7-7-7-7-9-9-10-10-12-|
  6.-1-1-1-1-1-1-1-1-5-5-5-5-5-5-5-5-1-1-1-1-1-1-1-5-5-5-5-5-5-7-7-8---8-10-|


 2. 1.------------------------|
    2.------------------------|
    3.------------------------|
    4.------------------------|
    5.-12---------------------|
    6.-10---------------------|


3.1.----------------------5------------------------5--------------|
  2.--------------------5----------------------------5------------|
  3.---------------4-5---------------------------------5-4--------|
  4.-------------7-----------------------------------------7------|
  5.--------------------------------------------------------------|
  6.--------------------------------------------------------------|

4.1.-------------------------------------------------------------------------|
  2.-------------------------------------------------------------------------|
  3.-------------------------------------------------------------------------|
  4.-7-7-9-9-10-10---------------7-7-9-10----7-7-9-9-10-10-------------------|
  5.-------------------------------------------------------------------------|
  6.-------------------------------------------------------------------------|
                                         (aquí repetimos 3 y 4 otra vez).

                                                    1ª vez |2ª
1.---------------------------------------------------------|-----|
2.---------------------------------------------------------|-----|
3.---------------------------------------------------------|-----|
4.---------------------------------------------------------|-----|
5.-1-3-3-3-1-3-3-1-3-3-3-1-3-3-5-7-7-7-5-7-7-5-7-7-7-5-7-7-|-7-7-|
6.-0-1-1-1-0-1-1-0-1-1-1-0-1-1-3-5-5-5-3-5-5-3-5-5-5-3-5-5-|-5-5-|


                                                          1ª vez      2ª
1.--------------------------------------------------------------------|---|
2.--------------------------------------------------------------------|---|
3.-10-10-10-9-7--10-10-10-9-7-----------------------------------------|/9-|
4.-------------10------------10--7-9-10-10-10-9-9-7-7-9-10-10-10-9-9-7|---|
5.--------------------------------------------------------------------|---|
6.--------------------------------------------------------------------|---|


Cuando cierro los ojos, miro y tan solo estas tu
Y me abraza el tiempo que va por ti
Te juro podría llorar y volver al sueño

Corro a ti sabes que muy cerca estoy
Quiero ser tu instante quiero que llores por mi hoy
Para sentir para decir que muero por tu voz, Que tardare en decirme que estoy loco si no estoy

1.-------------------------------------------------------------|
2.-------------------------------------------------------------|
3.-------------------------------------------------------------|
4.-------------------------------------------------------------|
5.-1-3-3-3-1-3-3-1-3-3-3-1-3-3-5-7-7-7-5-7-7-5-7-7-7-5-7-7-----|
6.-0-1-1-1-0-1-1-0-1-1-1-0-1-1-3-5-5-5-3-5-5-3-5-5-5-3-5-5-----|



1.---------------------------------------------------------------------|
2.---------------------------------------------------------------------|
3.-10-10-10-9-7--10-10-10-9-7------------------------------------------|
4.-------------10------------10--7-9-10-10-10-9-9-7-7-9-10-10-10-9-9-7-|
5.---------------------------------------------------------------------|
6.---------------------------------------------------------------------|



Loco por ti loco por ser dueño y esclavo amoooooooor
Ooohhh ohhh

1.--------------------------------------------------------------|
2.--------------------------------------------------------------|
3.--------------------------------------------------------------|
4.--------------------------------------------------------------|
5.-1-3-3-3-1-3-3-1-3-3-3-1-3-3-5-7-7-7-5-7-7-5-7-7-7-5-7-7--7-7-|
6.-0-1-1-1-0-1-1-0-1-1-1-0-1-1-3-5-5-5-3-5-5-3-5-5-5-3-5-5--5-5-|



1.-----------------------------------------------------------------------|
2.-----------------------------------------------------------------------|
3.-10-10-10-9-7--10-10-10-9-7-----------------------------------------/9-|
4.-------------10------------10--7-9-10-10-10-9-9-7-7-9-10-10-10-9-9-7---|
5.-----------------------------------------------------------------------|
6.-----------------------------------------------------------------------|


Cuando cierro los ojos miro y tan solo estas tu
Para mí muy dentro de mi alma estas
Contigo y sin ti al andar
Quiero estar despierto

Cuando vuelvas nena para darte a mí
Quiero ser tu amante quiero que cantes x mi
1.-------------------------------------------------------------|
2.-------------------------------------------------------------|
3.-------------------------------------------------------------|
4.---------------------------------------7-7-------------------|
5.-----7-7---5-2---7-7---0-------0-7-7---5-5--7-7-5-5----------|
6.-----5-5---3-0---5-5-----3-0-3---5-5--------5-5-3-3----------|


Para sentir para decir que muero por tu voz, Que tardare en decirme que estoy loco si no estoy

1.-------------------------------------------------------------|
2.-------------------------------------------------------------|
3.-------------------------------------------------------------|
4.-------------------------------------------------------------|
5.-1-3-3-3-1-3-3-1-3-3-3-1-3-3-5-7-7-7-5-7-7-5-7-7-7-5-7-7-----|
6.-0-1-1-1-0-1-1-0-1-1-1-0-1-1-3-5-5-5-3-5-5-3-5-5-5-3-5-5-----|



1.---------------------------------------------------------------------|
2.---------------------------------------------------------------------|
3.-10-10-10-9-7--10-10-10-9-7------------------------------------------|
4.-------------10------------10--7-9-10-10-10-9-9-7-7-9-10-10-10-9-9-7-|
5.---------------------------------------------------------------------|
6.---------------------------------------------------------------------|











Loco por ti loco por ser dueño y esclavo amoooooooor
Ooohhh ohhh

1.--------------------------------------------------------------|
2.--------------------------------------------------------------|
3.--------------------------------------------------------------|
4.--------------------------------------------------------------|
5.-1-3-3-3-1-3-3-1-3-3-3-1-3-3-5-7-7-7-5-7-7-5-7-7-7-5-7-7--7-7-|
6.-0-1-1-1-0-1-1-0-1-1-1-0-1-1-3-5-5-5-3-5-5-3-5-5-5-3-5-5--5-5-|





1.-----------------------------------------------------------------------|
2.-----------------------------------------------------------------------|
3.-10-10-10-9-7--10-10-10-9-7-----------------------------------------/9-|
4.-------------10------------10--7-9-10-10-10-9-9-7-7-9-10-10-10-9-9-7---|
5.-----------------------------------------------------------------------|
6.-----------------------------------------------------------------------|

Para sentir para decir que muero por tu voz, Que tardare en decirme que estoy loco si no estoy

1.-------------------------------------------------------------|
2.-------------------------------------------------------------|
3.-------------------------------------------------------------|
4.-------------------------------------------------------------|
5.-1-3-3-3-1-3-3-1-3-3-3-1-3-3-5-7-7-7-5-7-7-5-7-7-7-5-7-7-----|
6.-0-1-1-1-0-1-1-0-1-1-1-0-1-1-3-5-5-5-3-5-5-3-5-5-5-3-5-5-----|



1.---------------------------------------------------------------------|
2.---------------------------------------------------------------------|
3.-10-10-10-9-7--10-10-10-9-7------------------------------------------|
4.-------------10------------10--7-9-10-10-10-9-9-7-7-9-10-10-10-9-9-7-|
5.---------------------------------------------------------------------|
6.---------------------------------------------------------------------|






Loco por ti loco por ser dueño y esclavo amoooooooor
Ooohhh ohhh

1.--------------------------------------------------------------|
2.--------------------------------------------------------------|
3.--------------------------------------------------------------|
4.--------------------------------------------------------------|
5.-1-3-3-3-1-3-3-1-3-3-3-1-3-3-5-7-7-7-5-7-7-5-7-7-7-5-7-7--7-7-|
6.-0-1-1-1-0-1-1-0-1-1-1-0-1-1-3-5-5-5-3-5-5-3-5-5-5-3-5-5--5-5-|





1.-----------------------------------------------------------------------|
2.-----------------------------------------------------------------------|
3.-10-10-10-9-7--10-10-10-9-7-----------------------------------------/9-|
4.-------------10------------10--7-9-10-10-10-9-9-7-7-9-10-10-10-9-9-7---|
5.-----------------------------------------------------------------------|
6.-----------------------------------------------------------------------|




1.---------------------------------------------|
2.---------------------------------------------|
3.---------------------------------------------|
4.----------------------7---10---9-5-4---------|
5.---7-10-9-5-7---5-2-5-5---8----7-3-2---5-2-7-|
6.---5--8-7-3-5---3-0-3------------------3-0-5-|

1.-----------------------------------------------------------------|
2.-----------------------------------------------------------------|
3.-----------------------------------------------------------------|
4.----------------------7---10---9-5-4-----------------------------|
5.---7-10-9-5-7---5-2-5-5---8----7-3-2---5-2-7------7-7-7-7-7---/7-|
6.---5--8-7-3-5---3-0-3------------------3-0-5------5-5-5-5-5------|

(solo)


   T      T   T      T    T      T      T      T      T
1.-10-8-5-8-12-8-10-8-5-8-12-8-10-8-5-8-12-8-5-8-10-8-5-8-12-8-5-8-10-8-5-8-|
2.--------------------------------------------------------------------------|
3.--------------------------------------------------------------------------|
4.--------------------------------------------------------------------------|
5.--------------------------------------------------------------------------|
6.--------------------------------------------------------------------------|


1.------------------------------------------------------------------|
2.-13(14)(13)12-13-12---------------------------12-13-------13-15---|
3.--------------------14-12-10------------12-14-------14-16---------|
4.-----------------------------14-12-10-9---------------------------|
5.------------------------------------------------------------------|
6.------------------------------------------------------------------|


1.---------------------------------------17-------20(21)---17-19-20-|
2.-------15-17-------17-18-20(22)-20(22)----20-17-------------------|
3.-16-17-------17-19------------------------------------------------|
4.------------------------------------------------------------------|
5.------------------------------------------------------------------|
6.------------------------------------------------------------------|


1.-19-17-19-17------------------------------------------------------|
2.-------------20-18-17-18-17---------------------------------------|
3.----------------------------19-17-16-17-16-19(21)-----------------|
4.------------------------------------------------------------------|
5.------------------------------------------------------------------|
6.------------------------------------------------------------------|




Para sentir para decir que muero por tu voz
Que tardare en decirme que estoy loco si no estoy
Loco por tu loco por ser dueño y esclavo amoooooooor
Ooohhh ohhh


perchintabs.blogspot.com
Tap to rate this tab
# A B C D E F G H I J K L M N O P Q R S T U V W X Y Z