Song name
# A B C D E F G H I J K L M N O P Q R S T U V W X Y Z

La Oreja De Van Gogh - Pop tab

Intro:

e-----------------------------------------------------|
b--------------3-2------------3-2---------------------|
g---2--------------2--------------2------------2------|
d---------0-2-------------0-2------------0------------|
a-------4---------------4--------------4---4-0--------|
E-----------------------------------------------------|

e---5--------0-10-9-5-----0-10-9-5--------------5-5/17-17\15---------|
b--------2-3----------2-3------------2-3-2---------------------------|
g------------------------------------------2-2-----------------------|
d--------------------------------------------------------------------|
a--------------------------------------------------------------------|
E--------------------------------------------------------------------|
Tap to rate this tab
 
# A B C D E F G H I J K L M N O P Q R S T U V W X Y Z