Song name
# A B C D E F G H I J K L M N O P Q R S T U V W X Y Z

La Oreja De Van Gogh - Rosas tab

Help us improve GuitareTab! Take a short survey!
aki les dejo un temon "Rosas" lo uniko ke me falto fue el intro del piano :(
si alguien la tiene porfa la manda a mi e-mail pablosli_k17@hotmail.com.

Intro
    La
e. -------------------------|>
B. ---------2---------------|>
G. -----2-------2-----------|>
D. ---2---2-------2---------|> x3
A. -0-----------------------|>
E. -------------------------|>
y Al final Hace esto
    La
e. -------------------------|>
B. ---------0h2-------------|>
G. -----2---------2---------|>
D. ---2---2-----2---2-------|>
A. -0-----------------------|>
E. -------------------------|>

Luego Empiesa Esta Estrofa,
Todas Son Iguales,
en algunas Cambia el final

La                           Sim
  En un da de estos en que suelo pensar
e. -------------------------------------------------------|>
B. ---------2----------------------3----------------------|>
G. -----2-------2--------------4-----4---4----------------|>
D. ---2---2---2---2----------4---4-----4------------------|>
A. -0----------------------2------------------------------|>
E. -------------------------------------------------------|>
Fa#m                           Do#
  Hoy va a ser el da menos pensado,
e. -------------------------------------------------------|>
B. -----------2-------------------------0-----0-----------|>
G. -------2-------2-----------------1-------1-------------|>
D. -----4---4---4---4-------------3---3---3---------------|>
A. -----------------------------4-------------------------|>
E. -2-----------------------------------------------------|>

 Re                          La
  Nos hemos cruzado, has decidido mirar,
e. --------2-----2-------------0-----0--------------------|>
B. ----3-------3------------------------------------------|>
G. --2---2---2-------------2-------2----------------------|>
D. 0---------------------2---2---2------------------------|>
A. --------------------0----------------------------------|>
E. -------------------------------------------------------|>
         Mi     Re              La
  A los ojitos azules que ahora van a tu lado 
e. -4-0----2-----------------------------------|>
B. -----0----3---------------2-----------------|>
G. ------------2---------2-------2-------------|>
D. --------------------2---2---2---2-----------|>
A. ------------0-------------------------------|>
E. --------------------------------------------|>
   La
e. -------------------------|>
B. ---------0h2-------------|>
G. -----2---------2---------|>
D. ---2---2-----2---2-------|>
A. -0-----------------------|>
E. -------------------------|>


Desde el momento en el que te conoc
Resumiendo con prisas Tiempo de Silencio
Te juro que a nadie le he vuelto a decir
Que tenemos el rcord del mundo en querernos.

Antes De Empesar el Estrilbillo Hace
    La      La7+
e. -------5-0-----0-------|>
B. -----5-----2-----------|>
G. ---6---------1---------|>
D. -7---------------------|> 
A. -0---------------------|>
E. -----------------------|>    

 Fa#m                     La
  Por eso esperaba con la carita empapada
e. ---------2---------------------0-----------------------|>
B. -----2-------2-------------2-------2-------------------|>
G. ---2---2---2---2---------2---2---2---2-----------------|>
D. -4---------------------2-------------------------------|>
A. -------------------------------------------------------|>
E. -------------------------------------------------------|> 
 
       La7+                        Re          La
  A que llegaras con rosas, con mil rosas para m,
e. ---------0------------------2--------------------------|>
B. -----2-------2----------3-------3----------------------|>
G. ---1---1---1---1------2---2---2---2--------------------|>
D. -2------------------0----------------------------------|>
A. -------------------------------------------------------|>
E. -------------------------------------------------------|>

La                         Mi
  Porque ya sabes que me encantan esas cosas
e. ---------0------------------0--------------------------|>
B. -----2-------2----------0-------0----------------------|>
G. ---2---2---2---2------1---1---1---1--------------------|>
D. -2------------------2----------------------------------|>
A. -------------------------------------------------------|>
E. -------------------------------------------------------|>

           Re                    La       Mi
  Que no importa si es muy tonto, soy as.
e. ---------2-----------------5-4-0-----------------------|>
B. -----3-------3-----------5-------0---------------------|>
G. ---2---2---2---2-------6-----------1-------------------|>
D. -0-------------------7---------------------------------|>
A. -------------------------------------------------------|>
E. -------------------------------------------------------|>

           Fa#m                    La
  Y an me parece mentira que se escape mi vida
e. ---------2---------------------0-----------------------|>
B. -----2-------2-------------2-------2-------------------|>
G. ---2---2---2---2---------2---2---2---2-----------------|>
D. -4---------------------2-------------------------------|>
A. -------------------------------------------------------|>
E. -------------------------------------------------------|> 

       La7+                  Re         La
  imaginando que vuelves a pasarte por aqu,
e. ---------0------------------2--------------------------|>
B. -----2-------2----------3-------3----------------------|>
G. ---1---1---1---1------2---2---2---2--------------------|>
D. -2------------------0----------------------------------|>
A. -------------------------------------------------------|>
E. -------------------------------------------------------|>

  La                     Mi
  donde los viernes cada tarde, como siempre,
e. ---------0------------------0--------------------------|> 
B. -----2-------2----------0-------0----------------------|>
G. ---2---2---2---2------1---1---1---1--------------------|> 
D. -2------------------2----------------------------------|>
A. -------------------------------------------------------|>
E. -------------------------------------------------------|>

         Re                         La        Mi
  la esperanza dice 'quieta, hoy quizs s...' 
e. ---------2-----------------5--------0------------------|>
B. -----3-------3-----------5--------0--------------------|>
G. ---2---2---2---2-------6--------1----------------------|>
D. -0-------------------7--------2------------------------|>
A. -------------------------------------------------------|>
E. -------------------------------------------------------|>


En el Intermedio Pueden Improbisar Arpegeando
Con Las Siguientes Notas
   La,         La7+       Re         La     Mi 
e. -----------------------2--2---2-----0------0-----------|>
B. -2---2---2--2---2---2--3-----3--------2---2------------|>
G. -2---2-2----1---1-1--1---2--2------2-----1-------------|>
D. ------------2---------------------2--------------------|>
A. -0-----------------------------------------------------|>
E. -------------------------------------------------------|>

Escapando una noche de un bostezo de sol
Me pediste que te diera un beso.
Con lo baratos que salen mi amor,
Qu te cuesta callarme con uno de esos.

Pasaron seis meses y me dijiste adis,
Un placer coincidir en esta vida.
All me qued, en una mano el corazn,
Y en la otra excusas que ni t entendas. 


           La7+        Do#m
Y es que empiezo a pensar
e. ---------5------------------4--------------------------|>
B. -----7-------7----------5-------5----------------------|>
G. ---6---6---6---6------6---6---6---6--------------------|>
D. -7------------------6----------------------------------|>
A. -------------------------------------------------------|>
E. -------------------------------------------------------|>     

         Re             Sol         La
Que el amor verdadero es tan solo el primero
e. -------2--------------3---------5----------------------|>
B. -----3---3---3------3---3-----5---5--------------------|>
G. ---2-------2------4---------6--------------------------|>
D. -0----------------5---------7--------------------------|>
A. -------------------------------------------------------|>
E. -------------------------------------------------------|>

           Fa#m       Do#m
Y es que empiezo a sospechar
e. ------------5------4-----4-----------------------------|>
B. -----2-------------5-----5-----------------------------|>
G. -------2---------6---6-------6-------------------------|>
D. ---4-----4-----6-------6---6---------------------------|>
A. -4-----------------------------------------------------|>
E. -------------------------------------------------------|>         

          Re      Mi
Que los dems son slo 
e. ----------------0----0-----0---------------------------|>
B. -3---3-----3----0----0---0-----------------------------|>
G. -2---2---2---------------------------------------------|>
D. -0-----0--------2--2---2-------------------------------|>
A. -------------------------------------------------------|>
E. -------------------------------------------------------|>

      La    Do#m
Para olvidar...
e. -----5--------4-----------|>
B. ---5---5----5---5---------|>
G. -6--------6---------------|>
D. --------------------------|>
A. --------------------------|>
E. --------------------------|>

Y En El Estribillo Final Hace Esto

       Re                         La  La7+  Fa#m
La esperanza dice 'quieta, hoy quizs s...' 
e. ------------------------0-----0-----0----2----------------|>
B. -----3--------------------2-----2--------2----------------|>
G. ---2---2---2----------------2-----1------2----------------|>
D. -0-------0------------0------------------4----------------|>
A. -----------------------------------------4----------------|>
E. -----------------------------------------2----------------|>
Related for Rosas tab