Song name
# A B C D E F G H I J K L M N O P Q R S T U V W X Y Z

La Pastilla - Vida Tinta tab

Intro :

E|----------5--7p5-----5--7p5-----5--7p5-----5--7--7--7--7h8p7--------|
B|-------5----------5----------5----------5---------------------8--6v-|
G|--7b8---------------------------------------------------------------|
D|--------------------------------------------------------------------|
A|--------------------------------------------------------------------|
E|--------------------------------------------------------------------|


E|----------5--7p5-----5--7p5-----5--7p5-----5--7--7--7--7h8p7--------|
B|-------5----------5----------5----------5---------------------6--5v-|
G|--7b8---------------------------------------------------------------|
D|--------------------------------------------------------------------|
A|--------------------------------------------------------------------|
E|--------------------------------------------------------------------|


E|----------5--7p5-----5--7p5-----5--7p5-----5--7--7--7--7h8p7--------|
B|-------5----------5----------5----------5---------------------8--6v-|
G|--7b8---------------------------------------------------------------|
D|--------------------------------------------------------------------|
A|--------------------------------------------------------------------|
E|--------------------------------------------------------------------|


E|----------5--7p5-----5--7p5-----5--7p5-----5--7--7--7--7h8p7-----|
B|-------5----------5----------5----------5------------------------|
G|--7b8------------------------------------------------------------|
D|-----------------------------------------------------------------|
A|-----------------------------------------------------------------|
E|-----------------------------------------------------------------|


E|-------------------------------------------------|
B|-------------------------3/5---------------------|
G|--7----5----7----5----7-------7--5---------------|
D|------------------------------------7--5--7v-----|
A|-------------------------------------------------|
E|-------------------------------------------------|

This is the link to the song:http://www.youtube.com/watch?v=BzEn0mvNuQY
Tap to rate this tab
# A B C D E F G H I J K L M N O P Q R S T U V W X Y Z