Song name
# A B C D E F G H I J K L M N O P Q R S T U V W X Y Z

La Pestilencia - Brazos Cruzados tab

inro

|-----------------|-----------------|-----------------|-----------------|
|-----------------|-----------------|-----------------|-----------------|
|-5---------------|-4---------------|-----------------|-----------------|
|-5-------5-------|-4-------4-------|-2-------2-------|-2-------2-------|x7
|-3-------5-------|-2-------4-------|-2-------2-------|-2-------2-------|
|---------3-------|---------2-------|-0-0-0-0-0-0-0-0-|-0-0-0-0-0-0-0-0-|



chorus
y seguimos de brazos cruzados.
|-----------------|
|-----------------|
|-----------------|
|-2-2---4---7-4-3-|
|-2-2---4---7-4-3-|
|-0-0---2---5-2-1-|

|-----------------|
|-----------------|
|-----------------|
|-2-2---4---7-4-8-|
|-2-2---4---7-4-8-|
|-0-0---2---5-2-6-|
Tap to rate this tab
 
# A B C D E F G H I J K L M N O P Q R S T U V W X Y Z