Guitaretab - guitar tabs
Song name
# A B C D E F G H I J K L M N O P Q R S T U V W X Y Z

La Polla Records - Angeles Caidos tab

(this riff is played with the chords of the verse G# C C# D# x2)

E|--------------------------------------------------------|
B|--13-13-13-13-13-13-11-9---------------------9-9-8-8----|  |
G|---------------------------10-10-10-10-10-10------------|  | X2
D|--------------------------------------------------------|  |
A|--------------------------------------------------------|  |
E|--------------------------------------------------------| /

G#           C        C#          D#
Angeles del norte tan pulcros y pulidos
G#        C            C#          D#
cinicos muñecos siguen predicando por ahí


  C#            D#
Razones de economía
    C#             D#
con nombre de libertad
C#
nos obligan a vivir
D#
de la explitación


           G# G# C C#
quema la idea
           G# G# C C#
quema la idea
               G#
undidos en el juego cruel
  C#
dinero rey
    D#
el nuevo orden mundial aqui está



(this riff is played with the chords of the verse G# C C# D# x2)

E|--------------------------------------------------------|
B|--13-13-13-13-13-13-11-9---------------------9-9-8-8----|  |
G|---------------------------10-10-10-10-10-10------------|  | X2
D|--------------------------------------------------------|  |
A|--------------------------------------------------------|  |
E|--------------------------------------------------------| /


G#        C    C#          D#
angeles caidos viven en tu calle
G#           C          C#            D#
venden la vergüenza que tienen los vencidos


  C#            D#
Razones de economía
    C#             D#
con nombre de libertad
C#
les obligan a vivir
D#
de la humillación


           G# G# C C#
quema la idea
           G# G# C C#
quema la idea
               G#
undidos en el juego cruel
  C#
dinero rey
    D#
el nuevo orden mundial aqui está


[ Tab from: http://www.guitaretab.com/l/la-polla-records/185047.html ]
(this riff is played with the chords of the verse G# C C# D# x2)

E|--------------------------------------------------------|
B|--13-13-13-13-13-13-11-9---------------------9-9-8-8----|  |
G|---------------------------10-10-10-10-10-10------------|  | X2
D|--------------------------------------------------------|  |
A|--------------------------------------------------------|  |
E|--------------------------------------------------------| /


C#        G#
Ganador y perdedor
C#             G#
de una antigua ley
C#        G#
ganador y perdedor
   D#
el nuevo orden mundial aqui está


SOLO: this riff is also played with the same chords (G# C C# D#)X2

E|--------------------------------------------------------|
B|--9--11^-9--11^-9--11^------9--11^-9--11^-9--11^--------|
G|-----------------------8~------------------------8~-----|
D|--------------------------------------------------------|
A|--------------------------------------------------------|
E|--------------------------------------------------------|


  C#            D#
Razones de economía
    C#             D#
con nombre de libertad
C#
asqueroso ganador
D#
blanco es tu color


           G# G# C C#
quema la idea
           G# G# C C#
quema la idea
               G#
undidos en el juego cruel
  C#
dinero rey
D#
de una antigüa ley


(these chords and this riff played at the same time)

G#    C           C#   D#
queeeemaaaaa laa ideee
G#    C           C#   D#     E|---------------------------|
queeeemaaaaa laa ideee        B|--9--11^-9--11^-9--11^-----| |
G#    C           C#   D#     G|-----------------------8~--| |
queeeemaaaaa laa ideee        D|---------------------------| | X4
G#    C           C#          A|---------------------------| |
queeeemaaaaa laa ideee        E|---------------------------|/
D#                 G#
puedes quemarla tu mismo
Related for Angeles Caidos tab
Angeles Caidos chords by La Polla Records